Misc. Unsigned Bands - Dreadnot - Merely Breathing Text Guitar Tab

Learn song with the online tabulature player
intro:
e|----------------------------------------------------------------------|
B|----------------------------------------------------------------------|
G|----------------------------------------------------------------------|
D|----------------------------------------------------------------------|
A|--5-5-5-5-5-5-5-5-5-5-5---7-7-7-7-7-7-7-7-7--9-9-9-9-9-9-9-9-9-9------|
E|--3-3-3-3-3-3-3-3-3-3-3---5-5-5-5-5-5-5-5-5--7-7-7-7-7-7-7-7-7-7------|

e|------------------------------------------------------------------------|
B|------------------------------------------------------------------------|
G|------------------------------12-12-12-12-14-14-14-14-16-16-16-16-17-17-|
D|-------------------------------x--x--x--x--x--x--x--x--x-x-x-x--x--x--x-|
A|--7-7-7-7-7-7-7-7-7-7-7-7-----10-10-10-10-12-12-12-12-14-14-14-14-15-15-|
E|--5-5-5-5-5-5-5-5-5-5-5-5-----------------------------------------------|