Misc. Unsigned Bands - Drewsif Stalins Musical Endeavours - Affection Text Guitar Tab

Learn the song with the online tablature player
Affection (Feat. Tre Watson)
By Drewsif Stalin's Musical Endeavours.
Written by Drewsif Stalin and Tre Watson

/ - Slide up
\ - Slide down
~ - Vibrato
> - Picked quickly
h - Hammer on
p - Pull off
(x)- Played [x] many times

Intro

|----18----15----15-16-15-13-15-13-11-10-11----|
|----------------------------------------------|
|----15----12----12-13-12-10-12-10-8--7--8-----|
|----------------------------------------------|
|------------------------------(ad infinitum)--|
|----------------------------------------------|

Break before solo

|----------------------------------------------|
|----------------------------------------------|
|----15-----12~----12/13\12\10/12\10\8\7/8-----|
|----------------------------------------------|
|------------------------------(8x)------------|
|----------------------------------------------|

Solo

|---/18-18-18-15-15-15-15-15-16-15h16p15----15-----------------------|
|-----------------------------------------18----18-16h18p16\15/16----|
|--------------------------------------------------------------------|
|--------------------------------------------------------------------|
|--------------------------------------------------------------------|
|--------------------------------------------------------------------|

|--/18-18-18-15-------15-16-15----15-----------15h16h18--------15h16h18-20--|
|-------------------18-----------------15h16h18--------15h16h18-------------|
|---------------------------------------------------------------------------|
|---------------------------------------------------------------------------|
|---------------------------------------------------------------------------|
|---------------------------------------------------------------------------|

|----18----16--15-------------|
|------------------16---------|
|----------------------15-----|
|-----------------------------|
|-----------------------------|
|-----------------------------|

|--------15h18p15------15h18p15------15h18p15------15h18p15------15h18----|
|------16--------16--16--------16--16--------16--16--------16--16---------|
|----15------------15------------15------------15------------15-----------|
|-------------------------------------------------------------------------|
|-------------------------------------------------------------------------|
|-------------------------------------------------------------------------|

|----16----15----|
|----------------|
|----------------|
|----------------|
|----------------|
|----------------|

|--15-16-18--16--15--------------------------------------------------------|
|--------------------16--15--15h16p15\13-----------------------------------|
|------------------------------------------15---13-12---13-12-13/15-13-12--|
|--------------------------------------------------------------------------|
|--------------------------------------------------------------------------|
|--------------------------------------------------------------------------|

|----------------------------------------------------------------|
|------------13>15>16--------13>15>16-15/16-15-13--13h15p13------|
|----12>13>15--------12>13>15------------------------------15----|
|----------------------------------------------------------------|
|----------------------------------------------------------------|
|----------------------------------------------------------------|

|-----------------------------------------------------13(2)>15(2)>16(2)15---|
|------------------------------------13(2)>15(2)>16(2)----------------------|
|-------------------12(2)>13(2)>15(2)---------------------------------------|
|--12(2)>13(2)>15(2)--------------------------------------------------------|
|---------------------------------------------------------------------------|
|---------------------------------------------------------------------------|

|----16-15-13----------18-16-15--------------------------|
|-------------16-15-13----------18-16-15-13----13-15-16--|
|-------------------------------------------15-----------|
|--------------------------------------------------------|
|--------------------------------------------------------|
|--------------------------------------------------------|

Outro

|----18----15----15-16-15-13-15-13-11-10-11----|
|----------------------------------------------|
|----15----12----12-13-12-10-12-10-8--7--8-----|
|----------------------------------------------|
|------------------------------(ad infinitum)--|
|----------------------------------------------|