Misc. Unsigned Bands - Dustin Prinz - Away Text Guitar Tab

Learn the song with the online tablature player
This is the first Tab I've done.
Enjoy! :)

         Down/Up Strumming.

|                                  |
 ---- ^  v ^ v    ^  v  v ^ v  ----

e |---0--0-0-0---/0--0--0-0-0---x-x---|
B |---0--0-0-0---/0--0--0-0-0---x-x---|     x2
G |---0--0-0-0---/0--0--0-0-0---x-x---|
D |---4--4-4-4---/5--5--5-5-5---x-x---|
A |---2--2-2-2---/3--3--3-3-3---x-x---|
E |---x--x-x-x---/x--x--x-x-x---x-x---|

      ^  v ^ v    ^  v  v ^ v ^ v       ^ v ^ v ^
e |---0--0-0-0---/0--0--0-0-0-0-0---/0--0-0-0-0-0---|
B |---0--0-0-0---/0--0--0-0-0-0-0---/0--0-0-0-0-0---|
G |---0--0-0-0---/0--0--0-0-0-0-0---/0--0-0-0-0-0---|
D |---4--4-4-4---/5--5--5-5-5-5-5---/7--7-7-7-7-7---|
A |---2--2-2-2---/3--3--3-3-3-3-3---/5--5-5-5-5-5---|
E |---x--x-x-x---/x--x--x-x-x-x-x---/x--x-x-x-x-x---|

^ = Down Strum.
v = Up Strum.
/ = Slide.
x = Dead String/Scratch.

Thanks.