Misc. Unsigned Bands - Earlyrise - Old Friend Acoustic Text Guitar Tab

Learn the song with the online tablature player
Intro
e|------------------------------------------------------|
b|--------4-5-4---------------4--5--4-------------------|
g|------4-------------4------4----------------4---------|
d|------------------------------------------------------|
a|---4-------------4--------0--------------0------------|
e|------------------------------------------------------|

Verse 1

e|-------------------------------------------------------|
b|--------4-5-4---------------4--5--4--------------------|
g|------4-------------4------4----------------4----------|
d|-------------------------------------------------------| X2
a|---4-------------4--------0--------------0-------------|
e|-------------------------------------------------------|

Pre- Chorus

e|----0------0---------0------0----------0------0----------------|
b|---4-4----4-4-------4-4----4-4--------4-4----4-4-------4-5-4---|
g|--4---4--4---4-----4---4--4---4------4---4--4---4-----4------4-|
d|---------------X4----------------X4---------------X4-----------|
a|-4------4---------0------0----------4------4---------0------0--|
e|---------------------------------------------------------------|

Chorus

e|-------------------------------------------|
b|-------------------------------------------|
g|----2----------6-------4-------------------|
d|----2----------6-------4-------------------|      X4
a|---------------4-------2-------------------|
e|-------------------------------------------|

Mini Solo
Guitar 1)

e|-12----12------13----13----12-----12----10-------------|
b|---13-----13------13-----13---13----13----13--10-13-10-|
g|-------------------------------------------------------|
d|-------------------------------------------------------|   X2
a|-------------------------------------------------------|
e|-------------------------------------------------------|

Pre-verse (Guitar 2)
e|----------------------------------|
b|----------------------------------|
g|-----6--------2-------------------|
d|-----6--------2-------------------|     X2
a|-----4----------------------------|
e|----------------------------------|

Verse 2
Guitar 1)

e|------------------------------------------------------|
b|--------4-5-4---------------4--5--4-------------------|
g|------4-------------4------4----------------4---------| X2
d|------------------------------------------------------|
a|---4-------------4--------0--------------0------------|
e|------------------------------------------------------|

Verse 2
Guitar 2)

e|--------------------------------------|
b|--------------------------------------|
g|-----6--------2-----------------------|
d|-----6--------2-----------------------|   X2
a|-----4--------------------------------|
e|--------------------------------------|

Pre-Chorus
Guitar 1)

e|----0------0---------0------0----------0------0----------------|
b|---4-4----4-4-------4-4----4-4--------4-4----4-4-------4-5-4---|
g|--4---4--4---4-----4---4--4---4------4---4--4---4-----4------4-|
d|---------------X4----------------X4---------------X4-----------|
a|-4------4---------0------0----------4------4---------0------0--|
e|---------------------------------------------------------------|

Pre-Chorus
Guitar 2)

e|----------------------------------x---------|
b|----------------------------------x---------|
g|-----6---2----6----8-------2------x---------|
d|-----6---2----6----8-------2------x---------|
a|-----4--------4----6--------------x---------|
e|----------------------------------x---------|

Chorus 2
Guitar 1) Not pretty sure about this

e|--------------------------------------------|
b|--------------------------------------------|
g|---14-----12----9---14---12-----------------|
d|----x------x----x----x----x-----------------| X4
a|---12-----10----7---12---10-----------------|
e|--------------------------------------------|

Chorus 2
Guitar 2)

e|--------------------------------------|
b|--------------------------------------|
g|----2----------6-------4--------------|
d|----2----------6-------4--------------|  X4
a|---------------4-------2--------------|
e|--------------------------------------|
Bridge
(Guitar 1)
e|----0------0---------0------0--------0------0--------0-------0--|
b|---4-4----4-4-------4-4----4-4------4-4----4-4------4-4-----4-4-|
g|--4---4--4---4-----4---4--4---4----4---4--4---4----4---4---4---4|
d|----------------------------------------------------------------|X2
a|-4------4---------2------2--------0------0--------2-------2-----|
e|----------------------------------------------------------------|

Last Chorus

Guitar 1 (i'm not pretty sure about this)

e|----------------|
b|----------------|
g|-14--9--10------|  X4
d|--x--x--x-------|
a|-12--7--8-------|
e|----------------|

Guitar 2

e|-----------------------------------------------|
b|-----------------------------------E-----------|
g|-----6-------4-------2-----4-------N-----------|
d|-----6-------4-------2-----4-------D-----------|    X4
a|-----4-------2-------------2-------------------|
e|-----------------------------------------------|