Misc. Unsigned Bands - East Coast Addiction - Back Seat Love Song Text Guitar Tab

Learn song with the online tabulature player
-------------------------------------------------------------------------------
                             Back Seat Love Song - East Coast Addiction
-------------------------------------------------------------------------------
Tabbed by:Jake Sonnenfeld
Email:jksonn220@aol.com

Tuning: Drop D: : D a d g b e

Im jake this is my first tab and its for a pretty fucking sweet song hope you like!

Intro: Alot easier with capo on 9th fret

e|------------------11---------------------------9---------------------------|
B|-----------12--------12----12----------12----------12------12--------------|
G|-------11------11-------11---------11------11----------11------------------|
D|----9---------------------------9------------------------------------------|
A|---------------------------------------------------------------------------|
D|---------------------------------------------------------------------------|


Intro: Guitar 2(live)no capo
e|-----------------------------------------------------------------------------|
B|-----------------------------------------------------------------------------|
G|-----------------------------------------------------------------------------|
D|3--3--2--3--3--2--3--3--2--3--5--3--2--3--3--2--3--2--3--2--3--3--5--3--2----|
A|-----------------------------------------------------------------------------|
D|----------------------PALMMUTEALL--------------------------------------------|

e|---------------------------------------------------------------------------|
B|---------------------------------------------------------------------------|
G|---------------------------------------------------------------------------|
D|-1-------------------------------------------------------------------------|
A|-1-x14---------------------------------------------------------------------|
D|-1--------------------PALMMUTEALL------------------------------------------|

Verse: (intro)

e|------------------11---------------------------9---------------------------|
B|-----------12--------12----12----------12----------12------12--------------|
G|-------11------11-------11---------11------11----------11------------------|
D|----9---------------------------9------------------------------------------|
A|---------------------------------------------------------------------------|
D|----------------------PALMMUTEALL------------------------------------------|

Chorus:

e|-14-----11----12----11-----9----11-----9----11-------------------------------|
B|-----12----12----12----12----12-----12---12----12-----x(2)-------------------|
G|-----------------------------------------------------------------------------|
D|-----------------------------------------------------------------------------|
A|-----------------------------------------------------------------------------|
E|-------------------------------------------------------------\slide down-----|

Bridge:

e|-----------------------------------------------------------------------------|
B|-----------------------------------------------------------------------------|
G|----4-----4---4--------------------------------------------------------------|
D|----4-----4---4--------------------------------------------------------------|
A|----x-----x---x--------------------------------------------------------------|
E|----4-----2---4--------------------------------------------------------------|


| /  slide up
| \  slide down
| h  hammer-on
| p  pull-off
| ~  vibrato
| +  harmonic
| x  Mute note