Misc. Unsigned Bands - Ed2shred - Intro Text Guitar Tab

Learn song with the online tabulature player
Artist: Ed2Shred/Ed the Guitar Nerd
Title: Intro Theme
Tabbed by drawnacrol
Video Lesson by Ed: http://www.youtube.com/watch?v=p0gpJSuwM10
Cover Video: http://www.youtube.com/watch?v=HbXvaWm_rNk
                 

D#||----------------------------------------------|
A#||--12b(13)-----12----10------------------------|
F#||---------------------------11~----------------|
C#||----------------------------------------------|
G#||----------------------------------------------|
D#||----------------------------------------------|
 
  
|----------------15---------------------------|
|--15b(17)-15p13----------15------------------|
|--------------------12----------14------12---|
|----------------------------12---------------|
|------------------------------------12-------|
|---------------------------------------------|
 

|----------------------------------------12h17t19/20\19p17p12-|
|-------------------------------------13----------------------|
|-------------12h14t16/17\16p14p12h14-------------------------|
|----------14-------------------------------------------------|
|-10/12h15----------------------------------------------------|
|-------------------------------------------------------------|
 

|--------------------|
|-13-----------------|
|----14--------------|
|-------14-----------|
|----------15p12-----|
|--------------------|

 
|----------------------------------------------|
|--12b(13)-----12----10------------------------|
|---------------------------11~----------------|
|----------------------------------------------|
|----------------------------------------------|
|----------------------------------------------|
 
 
|----------------------13h17t22p17t20p17p13h17t19/20\19p15p10----------|
|-------------------15----------------------------------------12-------|
|-------------14h17----------------------------------------------12----|
|----------15-------------------------------------------------------12-|
|-------15-------------------------------------------------------------|
|-13-17----------------------------------------------------------------|
 

|-----------------------------12h15t20p15t19p15p12-|
|--------------------------13----------------------|
|-----------------------12-------------------------|
|--------------------14----------------------------|
|--14p10----10/12h15-------------------------------|
|--------12----------------------------------------|

 
|----------------------------12h15t17-||
|-13----------------------13----------||
|----12----------------12-------------||
|-------14----------14----------------||
|----------15-12h15-------------------||
|-------------------------------------||