Misc. Unsigned Bands - Edward Grieg - Morgenstemning Text Guitar Tab

Learn song with the online tabulature player
This is the tab for the beginning of Edwards Griegs "Morgenstemning".
It's a very beautiful song if you ask me, so I had to tab it.
Enjoy a nice piece of music!

-Played without distortion!

e|-7-------------------7--------------------7-----7--9-----9----7----------|
B|----9--7-----7--9-------9--7-----7h9-7h9-----9--------9----------9--7----|
G|----------9-------------------9----------------------------------------9-|
D|-------------------------------------------------------------------------|
A|-------------------------------------------------------------------------|
E|-------------------------------------------------------------------------|

e|-7-------------------7--------------------7-----7--9-----9---11--8--6-4--|
B|----9--7-----7--9-------9--7-----7h9-7h9-----9--------9------------------|
G|----------9-------------------9------------------------------------------|
D|-------------------------------------------------------------------------|
A|-------------------------------------------------------------------------|
E|-------------------------------------------------------------------------|

-Repeat with variations for the complete song!

Any suggestions? Emilvef@Hotmail.com

I hope you enjoyed the tab! Denbeste01