Misc. Unsigned Bands - El Paso De Cebra - Emily Jane Text Guitar Tab

Learn the song with the online tablature player
Intro

e------------------------------------------------|
B------------------------------------------------|
G-----5----------5-----------5-----------5-------|
D---7---7---7---7--7---7---7---7---7---7---7---7-|
A-7-------7---6------6---5-------5---0-------0---|
E------------------------------------------------|

e----------------------------------------x-x-5-5-5-----------------|
B----------------------------------------x-x-5-5-5-----------------|
G-----5----------5-----------5-----------x-x-5-5-5-----------------|
D---7---7---7---7--7---7---7---7---7---7-x-x-7-7-7-----------------|
A-7-------7---6------6---5-------5---0---x-x-7-7-7-----------------|
E----------------------------------------x-x-5-5-5-----------------|

| /  slide up
| \  slide down
| h  hammer-on
| p  pull-off
| ~  vibrato
| +  harmonic
| x  Mute note