Misc. Unsigned Bands - Elephant Parade - Thirteen Things Text Guitar Tab

Learn the song with the online tablature player
                             Thirteen Things - Elephant Parade

INTRO

e|---------------------------------------------------------------------------|
B|---------------------------------------------------------------------------|
G|----------0-----------------1-----------------2-----------------------2----|
D|----2-----------2-----2-----------0-----0-----------0-----0-----2----------|
A|-3-----3-----3-----3-----2-----2-----1-----1-----1-----1-----0-----0-------|
E|---------------------------------------------------------------------------|

e|----------------------------------------------------------------4------4---|
B|---------------------------------------------------------------------------|
G|---------------------------------------------------------------------------|
D|----------2-----------------------0-----------2----------------------------|
A|----0-----------0-----0-----0-----------0-----------0-----0----------------|
E|-3-----3-----3-----3-----2-----2-----1-----1-----1-----1-----0------0------|