Misc. Unsigned Bands - Emerald - Beat The World Text Guitar Tab

Learn the song with the online tablature player
                         beat the world-Emerald

Intro
e|-------------------------------------------------------------------|R
B|-------------------------------------------------------------------|E
G|-------------------------------------------------------------------|P x 2
D|------9-11-9-------------------------------------------------------|E
A|---11--------11-9--------------------------------------------------|A
E|-0----------------11-9---------------------------------------------|T
Verse 1
e|------------------------------------------------------------------|R
B|------------------------------------------------------------------|E
G|-77xxx--99xxx-----------------------------------------------------|P
D|-77xxx--99xxx--8--8xxx--55xxx-------------------------------------|E x 11
A|-55xxx--77xxx--8--8xxx--55xxx-------------------------------------|A
E|--------------10-10xxx--33xxx-------------------------------------|T
Chorus
e|---------|R-----|-------------------------------------------------------|
B|---------|E-----|-------------------------------------------------------|
G|---9---9-|P-----|-------------------------------------------------------|
D|-9---9-9-|E x 8-|-9-7-9-------------------------------------------------|
A|-7-----7-|A-----|-7-5-7-------------------------------------------------|
E|---------|T-----|-------------------------------------------------------|
verse 2
e|------------------------------------------------------------------|R
B|------------------------------------------------------------------|E
G|-77xxx--99xxx-----------------------------------------------------|P
D|-77xxx--99xxx--8--8xxx--55xxx-------------------------------------|E x 12
A|-55xxx--77xxx--8--8xxx--55xxx-------------------------------------|A
E|--------------10-10xxx--33xxx-------------------------------------|T
Chorus
e|---------|R-----|------------------------------------------------------|
B|---------|E-----|------------------------------------------------------|
G|---9---9-|P-----|------------------------------------------------------|
D|-9---9-9-|E x 8-|-9-7-9------------------------------------------------|
A|-7-----7-|A-----|-7-5-7------------------------------------------------|
E|---------|T-----|------------------------------------------------------|
verse 3
e|------------------|------------|---------------------------------------|
B|------------------|r-----------|---------------------------------------|
G|------------------|e-for-1 sec.|---------------------------------------|
D|-99xx-77xx--------|s-----------|-----------5---------------------------|
A|-77xx-55xx-99xx-7-|t-----------|-99xx-77xx-5---------------------------|
E|-----------77xx-5-|------------|-77xx-55xx-0---------------------------|
chorus
e|---------|R-----|--------------------------------------------------|
B|---------|E-----|--------------------------------------------------|
G|---9---9-|P-----|--------------------------------------------------|
D|-9---9-9-|E x 8-|-9-7-9--------------------------------------------|
A|-7-----7-|A-----|-7-5-7--------------------------------------------|
E|---------|T-----|--------------------------------------------------|
Outro solo
e|-11-9----9---------------------------------------------------------|
B|------11---11-9----9-----------------------------------------------|
G|----------------11---11-9----9-------------------------------------|
D|--------------------------11---11-9----9----------------11---------|
A|------------------------------------11---11-9----9------11---------|
E|----------------------------------------------11---11-9-9----------|

| /  slide up
| \  slide down
| h  hammer-on
| p  pull-off
| ~  vibrato
| +  harmonic
| x  Mute note