Misc. Unsigned Bands - Enigmatic Heart - Enter Text Guitar Tab

Learn song with the online tabulature player
|-------------------------|
|-Enigmatic Heart - Enter-|
|-------------------------|
|----Tabbed by Frankie----|
|-------------------------|

The intro off of their EP "Always Alive"

comments, questions, requests?
email: Frankie1253@yahoo.com

Drop D
Guitar 1 - (D-A-D-G-B-e)
Guitar 2 - (D-A-D-G-B-e)

/  - slide
x? - find the strumming pattern yourself (sorry!)
h  - hammer on
p  - pull off
.  - palm mute
~  - let ring for a bit

Guitar 1
e|-----------|----|
B|-----------|----|
G|-111111----|-x8-|
D|-x-x-x--0~-|----|
A|-9-9-9--0~-|----|
D|-9-9-9--0~-|----|
(11 not 1)

After the above plays 5 times, this is the lead:

Guitar 2
e|-----------------------------------------------------------|----|
B|-15p14-----------------------------------------------------|----|
G|------14---------------------------------------------------|-x3-|
D|--------16-14-16-14-12h14p12-11h12p11--12h14p12-11h12p11---|----|
A|-------------------------------------12-----------------12-|----|
D|-----------------------------------------------------------|----|