Misc. Unsigned Bands - Eternal Licks - Generation Above Text Guitar Tab

Learn the song with the online tablature player
Generation Above

Intro

     4x          4x          2x          2x          4x
 b---0-----| |---0-----| |---0-----| |---0-----| |---0------|
 b-----0---| |-----0---| |-----0---| |-----0---| |-----0----|
f#-0-----0-| |-0-----0-| |-0-----0-| |-0-----0-| |-0-----0--|
 b-0-------| |-2-------| |-5-------| |-7-------| |-0--------|
f#---------| |---------| |---------| |---------| |----------|
 b---------| |---------| |---------| |---------| |----------|

Verse 1

Guitar 1:

     4x          4x          2x          2x          4x
 b---0-----| |---0-----| |---0-----| |---0-----| |---0------|
 b-----0---| |-----0---| |-----0---| |-----0---| |-----0----|
f#-0-----0-| |-0-----0-| |-0-----0-| |-0-----0-| |-0-----0--|    Play 2x
 b-0-------| |-2-------| |-5-------| |-7-------| |-0--------|
f#---------| |---------| |---------| |---------| |----------|
 b---------| |---------| |---------| |---------| |----------|

Untouched blue water
Flows alongside pure white sand
Waves glide across the shoreline
Wind whispers its serenade as twilight
Announces the coming of night.

Pre-chorus

Keep a weather eye on the horizon
As the sun begins to fade
For I'll always be here
Even when I'm far away

Guitar 1: harmonic riff

 b-5---------12-|
 b---5---7------|
f#-----5---7----|    Play 2x
 b--------------|
f#--------------|
 b--------------|

Guitar 2:

 b-0--0--0-|
 b-0--0--0-|
f#-0--0--0-|    Play 2x
 b-5--7--9-|
f#-5--7--9-|
 b-0--0--0-|

Chorus

 b-0-0-0-0-0-0-0-0-0-0-0-0-|                |-0-0-0-|
 b-0-0-0-0-0-0-0-0-0-0-0-0-|                |-0-0-0-|
f#-0-0-0-0-0-0-0-0-0-0-0-0-|    Play 3x     |-0-0-0-|
 b-0-0-0-0-0-0-0-0-0-0-0-0-|   then play    |-5-5-7-|
f#-9-9-5-5-5-5-7-7-5-5-5-5-|                |-5-5-7-|
 b-9-9-5-5-5-5-7-7-0-0-0-0-|                |-o-0-0-|

Verse 2

Guitar 1:

     4x          4x          2x          2x          4x
 b---0-----| |---0-----| |---0-----| |---0-----| |---0------|
 b-----0---| |-----0---| |-----0---| |-----0---| |-----0----|
f#-0-----0-| |-0-----0-| |-0-----0-| |-0-----0-| |-0-----0--|    Play 2x
 b-0-------| |-2-------| |-5-------| |-7-------| |-0--------|
f#---------| |---------| |---------| |---------| |----------|
 b---------| |---------| |---------| |---------| |----------|

Shades of black are drawn as night
Now a feeling has risen that you cannot fight
Wish our time together would never end,
Guess you can never know what's around the next bend

Pre-chorus 2

Keep a weather eye on the horizon
As the sun begins to fade
For I'll always be here
Even when I'm far away

Guitar 1: harmonic riff

 b-5---------12-|
 b---5---7------|
f#-----5---7----|    Play 2x
 b--------------|
f#--------------|
 b--------------|

Guitar 2:

 b-0--0--0-|
 b-0--0--0-|
f#-0--0--0-|    Play 2x
 b-5--7--9-|
f#-5--7--9-|
 b-0--0--0-|

Chorus

 b-0-0-0-0-0-0-0-0-0-0-0-0-|                |-0-0-0-|
 b-0-0-0-0-0-0-0-0-0-0-0-0-|                |-0-0-0-|
f#-0-0-0-0-0-0-0-0-0-0-0-0-|    Play 3x     |-0-0-0-|
 b-0-0-0-0-0-0-0-0-0-0-0-0-|   then play    |-5-5-7-|
f#-9-9-5-5-5-5-7-7-5-5-5-5-|                |-5-5-7-|
 b-9-9-5-5-5-5-7-7-0-0-0-0-|                |-o-0-0-|

Bridge

 b--0----0----0----0-|               |-0-0~--|
 b--0----0----0----0-|               |-0-0~--|
f#--0----0----0----0-|    Play 2x    |-0-0~--|
 b-12----7----0----5-|   then play   |-0-0~--|
f#-12----7----9----5-|               |-2-2/5-|
 b--0----0----0----0-|               |-2-2/5-|

Chorus

 b-0-0-0-0-0-0-0-0-0-0-0-0-|                |-0-0-0-|
 b-0-0-0-0-0-0-0-0-0-0-0-0-|                |-0-0-0-|
f#-0-0-0-0-0-0-0-0-0-0-0-0-|    Play 3x     |-0-0-0-|
 b-0-0-0-0-0-0-0-0-0-0-0-0-|   then play    |-5-5-7-|
f#-9-9-5-5-5-5-7-7-5-5-5-5-|                |-5-5-7-|
 b-9-9-5-5-5-5-7-7-0-0-0-0-|                |-o-0-0-|

Outro

     4x          4x          2x          2x          4x
 b---0-----| |---0-----| |---0-----| |---0-----| |---0------|
 b-----0---| |-----0---| |-----0---| |-----0---| |-----0----|
f#-0-----0-| |-0-----0-| |-0-----0-| |-0-----0-| |-0-----0--|
 b-0-------| |-2-------| |-5-------| |-7-------| |-0--------|
f#---------| |---------| |---------| |---------| |----------|
 b---------| |---------| |---------| |---------| |----------|