Misc. Unsigned Bands - Ethan Mullins - West Text Guitar Tab

Learn song with the online tabulature player
Bass~
e|--------------------------------------------------|
b|--------------------------------------------------|
g|--------------------------------------------------|
d|------------------0-------------------------------|          (3x)
a|----------------2----------0----------------------|
E|-0--0--0-2-3--3----2--2--3---3--3--2--------------|

Electric/Lead~
e|----------------------------|
b|----------------------------|
g|----------------------------|
d|----------------------------|                     (2x)
a|-3-5--3-5--3-5--3-5--0-7-9--|
E|----------------------------|


Haven't gotten the next part yet but tell me if something sounds like it should go there.