Misc. Unsigned Bands - Ethan Pombo - Midnight Sky Text Guitar Tab

Learn song with the online tabulature player
http://ultrawebbox.tripod.com

The progression is down, down, up, up, down
5/4 count

e|-0-------|-0------|-0------|-0------|-0------|-0------|-0------|-0------|
B|-10------|-8------|-7------|-5------|-5------|-5------|-5------|-0------|
G|-0-------|-0------|-0------|-0------|-6------|-7------|-6------|-9------|
D|-0-------|-0------|-0------|-0------|-0------|-0------|-0------|-0------|
A|---------|--------|--------|--------|--------|--------|--------|--------|
E|---------|--------|--------|--------|--------|--------|--------|--------|

                    A5       G5       Gb5      E        Em      D2
e|-0------|-0------|--------|--------|--------|-0------|-0-----|-0------|
B|-0------|-7------|-10-----|-8------|-7------|-0------|-0-----|-3------|
G|-7------|-0------|-9------|-7------|-6------|-1------|-0-----|-2------|
D|-0------|-0------|-7------|-5------|-4------|-2------|-2-----|-0------|
A|--------|--------|--------|--------|--------|-2------|-2-----|--------|
E|--------|--------|--------|--------|--------|-0------|-0-----|--------|

  Dsus4 D2   CM7       C      Bm      D      FMaj7   C        D   A      E
e|-3----0--|-0-------|-0----|-2-----|-2----|-0------|-0-----|-3---0----|-0------|
B|-3----3--|-0-------|-1----|-3-----|-3----|-1------|-1-----|-2---2----|-0------|
G|-2----2--|-0-------|-0----|-4-----|-2----|-2------|-0-----|-3---2----|-1------|
D|-0----0--|-2-------|-2----|-4-----|-0----|-3------|-2-----|-0---2----|-2------|
A|---------|-3-------|-3----|-------|------|--------|-3-----|-----0----|-2------|
E|---------|---------|-0----|-------|------|--------|-0-----|----------|-0------|
   D    A      E
e|-3----0----|-0-------|
B|-2----2----|-0-------|
G|-3----2----|-1-------|
D|-0----2----|-2-------|
A|------0----|-2-------|
E|-----------|-0-------|

This song is for you Katie:

I made this song just after the football game. I was in my room looking out my window
my guitar. This song reminds me of you. Just as the stars make up the beauty of the sky,
do the traits make one person. For you should not judge people by 1 trait, but by their 
good traits that makes the reason for liking them. Theres always more to a person than
may already know.

-There was this kid, Cameron, in 2nd grade who was really weird and didn't seem like the
Id want to be friends with. Later that year I had joined the chess club and so did he.
started playing against each other. He was a really nice and funny guy once I got to 
him. We soon became friends and till this day, we still are. In fact hes been my best
since and we see each other every year. Last year he came to my birthday in D.C. and 
was a sign that said Cameron Street. He started humping it screaming "It has my name on it" 
I was laughing for hours. He always knows how to make my day.