Misc. Unsigned Bands - Evans - Roadtrippin Text Guitar Tab

Learn the song with the online tablature player
Title: Roadtrippin
Group: Evans

Intro..

|------------------------|
|------------------------|
|------------------------|
|-7777-7h9p7-9/11-11-----|   x4
|-9999-------9/11-11-9-7-|
|------------------------|

|----------------------|
|----------------------|
|----------------------|
|-7777-7h9p7-666-7-9-7-|   x4
|-9999-------666-7-9-7-|
|----------------------|

|-------------------------------|
|-------------------------------|
|-------------------------------|
|-999-111111-777-999-7777777777-|
|-000-000000-000-000-9999999999-|
|-------------------------------|

Verse..

|-------------------------------|
|-------------------------------|
|-------------------------------|
|-999-111111-777-999-7777777777-|
|-000-000000-000-000-9999999999-|
|-------------------------------|

Chorus..

|-------------------------------|
|-------------------------------|
|-999-111111-777-999-7777777777-|
|-000-000000-000-000-9999999999-|
|-------------------------------|
|-------------------------------|

Verse 1

Feel like takin the road to California beach.
Chicks and alcohol is up in the air.
a couple of smokes and routbeer
near, near in my atmosphere.

Verse 2

The sunshine it hotter then ever today.
Cause today is the day.
The day we won't forget.
Never ever forget.

Bridge

The first day of our first roadtrip.
The first day of our new life.

Chorus

Roadtrippin, makes you forget
Roadtrippin, makes you start on something new
Roadtrippin, makes you enjoy your life
We wanna share our happiness with you.

Verse 3

When our roadtrip starts
Everything is packed and perfect
We wanna feel, we wanna smell
We wanna be were everything is happen

Bridge

Now the revolution is here
We will wake up from all boring things
Now it's just we, the time and the long long road

Chorus

Roadtrippin, makes you forget
Roadtrippin, makes you start on something new
Roadtrippin, makes you enjoy your life
We wanna share our happiness with you.

Chorus
x3)

Outro..

|------------------------|
|------------------------|
|------------------------|
|-7777-7h9p7-9/11-11-----|   x4
|-9999-------9/11-11-9-7-|
|------------------------|

|----------------------|
|----------------------|
|----------------------|
|-7777-7h9p7-666-7-9-7-|   x4
|-9999-------666-7-9-7-|
|----------------------|

Maid by Monta

//

This text and song has Copywright by "Evans"