Misc. Unsigned Bands - Fade To Fullness - Break Into Light Text Guitar Tab

Learn the song with the online tablature player
Intro
[Mild Distortion]

E|----------------------------------------------------------|
B|----------------------------------------------------------|
G|----------------------------------------------------------|
D|-7\2-2-2-3-2-----------------2-2-2-3-2--------------------|   X2
A|---0~~~~~~~~3-2-------2-3-2--0~~~~~~~~3-2-----------------|
E|---------------3-3-3--------------------3-3-3-2-0~~~~~~~~~|

Verse 1
[Clean]
                                            (At End of Second Set)
E|----------------------------------|       |---------|
B|----------------------------------|       |---------|
G|----------------------------------|       |---------|
D|--2-2-2-2-2-0-0-0-2-2-2-2-0-0-0---|   X2  |-2-2-0-0-|
A|-0-0-0-0-3-3-2-2-0-0-0-0-3-3-2-32-|       |-3-3-2-2-|
E|----------------------------------|       |---------|

Verse 2
[Disorted]

E|--------------------|
B|--------------------|
G|--------------------|
D|-2-22-222-22-0-00-0-|  X4
A|-0-00-000-33-0-22-0-|
E|--------------------|

Outro
[Distorted]
E|--------------------------------------------------------|
B|--------------------------------------------------------|
G|--------------------------------------------------------|
D|-2-2-2-3-2-----------------2-2-2-3-2--------------------|
A|-0~~~~~~~~3-2-------2-3-2--0~~~~~~~~3-2-----------------|
E|---------------3-3-3--------------------3-3-3-2-0~~~~~~~|