Misc. Unsigned Bands - Fallen Behind - Get This Right Text Guitar Tab

Learn the song with the online tablature player
fallen behind is an australian rock act starting up in the suburb of werribee going straight to the top!
basic chord progression for intro with wah pedals played palm muted and fast!

g  c  e  d

verse
7-11-3-5 Drop D

Chorus
7-5-11-3

bridge
same as chor but single stroke no dist

G#     E    B   F
---   ---  ---  ---|
---   ---  ---  ---|
---   ---  -4-  ---|
-6-   -2-  -4-  -4-|
-6-   -2-  -2-  -4-|
-4-   -0-  ---  -2-|

Intro/Verse

Eb---------------------------------------------------------------|
Bb---------------------------------------------------------------|
Gb---------------------------------------------------------------|
Db---999999999999---0004/5-5-5/7---777777777777---07777/55/444---|
Ab---999999999999---000000000000---555555555555---000000000000---|
Db---999999999999---000000000000---555555555555---000000000000---|

Eb---------------------------------------------------------------|
Bb------------------------------------------------------555555---|
Gb------------------------------------------------7-6-7-777777---|
Db---999999999999---0004/5-5-5/7---777777777777---0-0-0-000000---|
Ab---999999999999---000000000000---555555555555------------------|
Db---999999999999---000000000000---555555555555------------------|

Fill

Eb------------------|
Bb---------555555---|
Gb---7-6-7-777777/--|-slide into chorus
Db---0-0-0-000000/--|
Ab------------------|
Db------------------|

Chorus

Eb--------------------------------------------------------------------|
Bb---1010101010101010/12121212---888888888888---3333333333-2-33333333-|
Gb---9 9 9 9 9 9 9 9 /11111111---777777777777---2222222222-2-22222222-|
Db---7 7 7 7 7 7 7 7 /9 9 9 9 ---555555555555---0000000000-0-00000000-|
Ab---7 7 7 7 7 7 7 7 /9 9 9 9 ---555555555555---0000000000-0-00000000-|
Db---7 7 7 7 7 7 7 7 /9 9 9 9 ---555555555555---0000000000-0-00000000-|

Eb------------------------------------------------|
Bb---1010101010101010/12121212---8888888888-------|
Gb---9 9 9 9 9 9 9 9 /11111111---7777777777-7-6---|Back To Verse
Db---7 7 7 7 7 7 7 7 /9 9 9 9 ---5555555555-------| First Time
Ab---7 7 7 7 7 7 7 7 /9 9 9 9 ---5555555555-------|
Db---7 7 7 7 7 7 7 7 /9 9 9 9 ---5555555555-------|

Bridge

Eb------------------------------------------------------------------|
Bb------------------------------------------------------------------|
Gb------------------------------------------------------------------|
Db---9999999999---111111--121212121212---5555555555�--0000000000----|
Ab---9999999999---111111--121212121212---5555555555�--0000000000----|
Db---9999999999---111111--121212121212---5555555555�--0000000000----|