Misc. Unsigned Bands - Fallen Paradise - The War Goes On Text Guitar Tab

Learn song with the online tabulature player
this is the whole of the song 'the war goes on' written by the english band fallen
paradise :) hope you enjoy it.


Guitar 1: Clean
Guitar 2: Heavy distortion

Intro (p.1)

          Guitar 1
e -----------------------------|
B -----------------------------|
G 0000000000000000 -(x6)-------|
D 2222222222222222-------------|
A 2222222222222222-------------|
E -----------------------------|

         Guitar 2
e ------------------------------|
B ------------------------------|
G ------------------------------|
D -------77x9-(x5)--------------|
A -------77x9-------------------|
E -------55x7-------------------|

Intro (p.2)

            Guitar 1
e -----------------------------|  (continue til' verse)
B -----------------------------|
G 0000000000000000 ------------|
D 2222222222222222-------------|
A 2222222222222222-------------|
E -----------------------------|

            Guitar 2
e -----------------------------|
B -----------------------------|
G -----------------------------|
D -----------------------------|
A 99-9999-9999-777-9-----------|
E 77-7777-7777-555-7-----------|

Verse

Both Guitars Now

e -------------------------------------| (x4)
B -------------------------------------|
G -------------------------------------|
D -------------------------------------|
A 22222222 55555555 77777777 9~ 7~ 5~ 2|
E 00000000 33333333 55555555 7~ 5~ 3~ 0|

Chorus

e ----------------------------------| (x4)
B ----------------------------------|
G ----------------------------------|
D 55555555-77777777-9999999999999999|
A 33333333-55555555-7777777777777777|
E ----------------------------------|

Verse

Chorus

Solo

e ------------------------------------------------------------------------|
B ------------------------------------------------------------------------|
G ------------------------------------------------------------------------|
D ------------------------------------------------------------------------|
A ------------------------------------------------12 12 12 12 12 12 12 12-|
E 12 12 12 12 12 12 12 12 15 15 15 15 15 15 15 15-------------------------|

e --------------------------------------------------------------------------|
B -----------------------------------------------------------------------12-|
G ----------------------12~~ 12 12 12 12 12 12 12 12 14 14 12 14 14 12 14---|
D --------12 12 12 14 14----------------------------------------------------|
A 14 14 14 -----------------------------------------------------------------|
E --------------------------------------------------------------------------|

e -----------------12 12 12 12 12 12 15brb 15brb 15brb 15b 12 12 12 12 12---|
B 12 12 12 12 15 15-----------------------------------------------------15--|
G --------------------------------------------------------------------------|
D --------------------------------------------------------------------------|
A --------------------------------------------------------------------------|
E --------------------------------------------------------------------------|

e
B 15 12b 12 12 12 12 12 12 12 12--------------------------------------------|
G ------------------------------14 12---------------------------------------|
D -----------------------------------14 12 12 12 12 12 14 12 12 14 12 12----|
A ---------------------------------------------------------------------- 14-|
E --------------------------------------------------------------------------|

e -------------|
B -------------|
G -------------|
D -------------|
A 12-----------|
E --15~~~~~~~~~|

Chorus

Rundown (Chorus Single Power Chords Backwards)

Enjoy !!!!! :D