Misc. Unsigned Bands - Fallen Traitors - To My Dear Text Guitar Tab

Learn the song with the online tablature player
Song: To My Dear Midnight Rose; You Are Just As Dead As I...
Album: War & Peace
Year: 2011

Intro
x4):
e----------------------------------|
B----------------------------------|
G----------------------------------|
D------9-------9-------9-------9---|
A----9-------9-------9-------9---9-|
E--7-----7-7-----7-7-----7-7-------|

e----------------------------------|
B----------------------------------|
G----------------------------------|
D------7-------7-------7-------7---|
A----7-------7-------7-------7---7-|
E--5-----5-5-----5-5-----5-5-------|

e----------------------------------|
B----------------------------------|
G----5-----5-----------------5-----|
D------5-----5-----------5-5---5---|
A----------------5~~~--5---------5-|
E--3-----3-----3-----3-------------|

e----------------------------------|
B----------------------------------|
G----------------------------------|
D------7-------7-------7-------7---|
A----7-------7-------7-------7---7-|
E--5-----5-5-----5-5-----5-5-------|

Verse
x2):
e-----------------------------------|\
B-----------------------------------| \
G-----------------------------------| | [Play this
D--9-9-9-9-9-9-9-9-9-9-9-9-9-9-9-9--| |     x4]
A--9-9-9-9-9-9-9-9-9-9-9-9-9-9-9-9--| /
E--7-7-7-7-7-7-7-7-7-7-7-7-7-7-7-7--|/

e-----------------------------------|\
B-----------------------------------| \
G-----------------------------------| | [Play this
D--9-9-9-9-9-9-9-9-9-9-9-9-9-9-9-9--| |     x4]
A--10101010101010101010101010101010-| /
E--7-7-7-7-7-7-7-7-7-7-7-7-7-7-7-7--|/

e-----------------------------------|\
B-----------------------------------| \
G-----------------------------------| | [Play this
D--8-8-8-8-8-8-8-8-8-8-8-8-8-8-8-8--| |     x4]
A--9-9-9-9-9-9-9-9-9-9-9-9-9-9-9-9--| /
E--7-7-7-7-7-7-7-7-7-7-7-7-7-7-7-7--|/

e-----------------------------------|\
B-----------------------------------| \
G-----------------------------------| | [Play this
D--7-7-7-7-7-7-7-7-8-8-8-8-8-8-8-8--| |     x4]
A--9-9-9-9-9-9-9-9-8-8-8-8-8-8-8-8--| /
E--10101010101010109-9-9-9-9-9-9-9--|/

Chorus
x4):
e--------------------------|
B--------------------------|
G--------------------------|
D--------------------------|
A--9-9--9-9----9-9--9-9----|
E--7-7--7-7----7-7--7-7----|

e------------------------------------|
B------------------------------------|
G------------------------------------|
D------------------------------------|
A--9-9--9-9--------------------------|
E--7-7--7-7----7-7-9-10-9h10p9p7-5---|

e--------------------------|
B--------------------------|
G--------------------------|
D--------------------------|
A--5-5--5-5----5-5--5-5----|
E--3-3--3-3----3-3--3-3----|

e-----------------------------|
B-----------------------------|
G-----------------------------|
D-----------------------------|
A--5-5--5-5------------5-7/9--|
E--3-3--3-3----3-3-5-7--------|

Solo
e-----------------------------------------|
B-----------------------------------------|
G-----------------------------------------|
D-----------------------------------------|
A-----------------------------------------|
E---9-7-9-10-9-10-12-10-12h13t16t13p12----|

e-----------------------------------------|
B-----------------------------------------|
G-----------------------------------------|
D-----------------------------------------|
A-----------------------------------------|
E--13t16t13p12h13t16t13~~~10-16t13t16t13--|

e-------------------------------------------|
B-------------------------------------------|
G-------------------------------------------|
D-------------------------------------------|
A-------------------------------------------|
E--16t12t16t12t16t10t16t10t16t9t16t9h10p9p7-|

e------------12h17p12-----------------|
B----------13--------13---------------|
G--------14------------14~~~~~--------|
D-------------------------------------|
A-------------------------------------|
E---7\0-------------------------------|

Verse
x1):
e-----------------------------------|\
B-----------------------------------| \
G-----------------------------------| | [Play this
D--9-9-9-9-9-9-9-9-9-9-9-9-9-9-9-9--| |     x4]
A--9-9-9-9-9-9-9-9-9-9-9-9-9-9-9-9--| /
E--7-7-7-7-7-7-7-7-7-7-7-7-7-7-7-7--|/

e-----------------------------------|\
B-----------------------------------| \
G-----------------------------------| | [Play this
D--9-9-9-9-9-9-9-9-9-9-9-9-9-9-9-9--| |     x4]
A--10101010101010101010101010101010-| /
E--7-7-7-7-7-7-7-7-7-7-7-7-7-7-7-7--|/

e-----------------------------------|\
B-----------------------------------| \
G-----------------------------------| | [Play this
D--8-8-8-8-8-8-8-8-8-8-8-8-8-8-8-8--| |     x4]
A--9-9-9-9-9-9-9-9-9-9-9-9-9-9-9-9--| /
E--7-7-7-7-7-7-7-7-7-7-7-7-7-7-7-7--|/

e-----------------------------------|\
B-----------------------------------| \
G-----------------------------------| | [Play this
D--7-7-7-7-7-7-7-7-8-8-8-8-8-8-8-8--| |     x4]
A--9-9-9-9-9-9-9-9-8-8-8-8-8-8-8-8--| /
E--10101010101010109-9-9-9-9-9-9-9--|/

Chorus
x3):
e--------------------------|
B--------------------------|
G--------------------------|
D--------------------------|
A--9-9--9-9----9-9--9-9----|
E--7-7--7-7----7-7--7-7----|

e------------------------------------|
B------------------------------------|
G------------------------------------|
D------------------------------------|
A--9-9--9-9--------------------------|
E--7-7--7-7----7-7-9-10-9h10p9p7-5---|

e--------------------------|
B--------------------------|
G--------------------------|
D--------------------------|
A--5-5--5-5----5-5--5-5----|
E--3-3--3-3----3-3--3-3----|

e-----------------------------|
B-----------------------------|
G-----------------------------|
D-----------------------------|
A--5-5--5-5------------5-7/9--|
E--3-3--3-3----3-3-5-7--------|

Outro Break
e----------------------------------|
B----------------------------------|
G----------------------------------|
D----------------------------------|
A--9-9--9-9--------9-9--9-9--------|
E--7-7--7-7--------7-7--7-7--------|

e----------------------------------------|
B----------------------------------------|
G----------------------------------------|
D----------------------------------------|
A--5-5--5-5----5-5--5-5---7-7--7-7--9\\\-|
E--3-3--3-3----3-3--3-3---5-5--5-5--7\\\-|