Misc. Unsigned Bands - Fatal Wednesday - One Lost City Text Guitar Tab

Learn song with the online tabulature player
Thank you for checking out my band, Fatal Wednesday's song "One Lost City"
You can check out our song on our Myspace or facebook. 

Myspace link: www.myspace.com/fatalwednesday

Mat Hall

[Intro]
Repeat x6
|-------------------------------------------------------------------------| 
|-------------------------------------------------------------------------| 
|-------------------------------------------------------------------------| 
|---------------3~-----------------5~-----------------3~-------2-------1--| 
|---------------3~-----------------5~-----------------3~-------2-------1--| 
|000--000--000--3~--000--000--000--5~--000--000--000--3~--000--2--000--1--| 

[Chorus]
Repeat x2 [After Breakdown play x3]
|-------------------------------------------------------------------------| 
|-------------------------------------------------------------------------| 
|-------------------------------------------------------------------------| 
|0-000~-0000-0-00-0--8-888~-8888-8-88-8--5-555~-5555-5-55-5---------------| 
|0-000~-0000-0-00-0--8-888~-8888-8-88-8--5-555~-5555-5-55-5---------------| 
|0-000~-0000-0-00-0--8-888~-8888-8-88-8--5-555~-5555-5-55-5---------------| 
 
                         [Start of Breakdown]
|--------------------------| 
|--------------------------| 
|--------------------------| 
|-77777777--8888--7777--0~-| 
|-77777777--8888--7777--0~-| 
|-77777777--8888--7777--0~-| 
                       [Let Ring]

[Pr-Breakdown]
Repeat x4
|----------------| 
|----------------| 
|----------------| 
|0000-0~---1-0~--| 
|0000-0~---1-0~--| 
|0000-0~---1-0~--| 

Breakdown [Part 1 of 2]
|------------------|     
|------------------| 
|------------------| 
|------------------| repeat x2 [after second time go to part 2]
|11-11~-1-11~------| 
|22-22~-2-22~------|            

Breakdown [Part 2 of 2]
|------------------|     
|------------------| 
|------------------| 
|------------------| repeat x2 [after this go to part 1]
|00-00~-0-00~------| 
|11-11~-1-11~------|   

[!!!!GO BACK UP TO CHORUS!!!!]