Misc. Unsigned Bands - Fatty Spins - Doin Your Mom Text Guitar Tab

Learn the song with the online tablature player
The whole thing is played twice

E---11-10-8--------11-10-8---------------|
B-----------11-8-----------11-8----------|
G----------------8--------------8--------|
D----------------------------------------|
A---------------------------------x//----|
E---------------------------------x//----|

E---13-11-10----------13-11-10--------------|
B------------13-11-------------13-11--------|
G------------------10----------------10-----|
D-------------------------------------------|
A---------------------------------------x//-|
E---------------------------------------x//-|