Misc. Unsigned Bands - Feel Good Cover - Dustin Prinz Text Guitar Tab

Learn the song with the online tablature player
Okay.

This is for people who couldn't follow the Tutorial Dustin Prinz was so kindly to
give us on Youtube.

e|-----------------------------------------------------------------------|
B|-----------------------------------------------------------------------|
G|---------------------------------------------------This part is starts-|
D|---------------------------------------------------When it gets into---|
A|------------2-1~--------------------------------------The chorus-------|
E|--1---1-3-4------------6--6-9-8--4--1~---1/13\----1313-13-131313-13\/--|

      ^   ^ v  v^v   ^   ^ v  v^v   ^   ^ v  v^v   ^   ^ v  v^v
e|----6~--6-6--666---6~--6-6--666\---4~--4-4--444\---1~--1-1--111----|
B|----7~--7-7--777---6~--6-6--666\---4~--4-4--444\---2~--2-2--222----|
G|----8~--8-8--888---6~--6-6--666\---4~--4-4--444\---3~--3-3--333----|
D|----8~--8-8--888---6~--6-6--666\---4~--4-4--444\---3~--3-3--333----|
A|----6~--6-6--666---8~--8-8--888\---6~--6-6--666\---1~--1-1--111----|
E|----x~--x-x--xxx---8~--8-8--888\---6~--6-6--666\---1~--1-1--111----|

              There's the chorus.