Misc. Unsigned Bands - Feromona - Film Noir Text Guitar Tab

Learn the song with the online tablature player
hello again!!

Brought you some feromona tabs :D

e|-------------------------------------------------------------|
B|-------------------------------------------------------------|
G|-------------------------------------------------------------|
D|--------------------------2-2----------------------------2-2-|
A|--------0-1-0---------0-2--------------0-1-0---------0-2-----|
E|--0-0-3-------3-0---0------------0-0-3-------3-0---0---------|

e|-------------------------------------------------------------|
B|-------------------------------------------------------------|
G|-------------------------------------------------------------|
D|--------------------------2-2--------------------------------|
A|--------0-1-0---------0-2--------------0-1-0-----------------|
E|--0-0-3-------3-0---0------------0-0-3-------3-0-------------|