Misc. Unsigned Bands - Ffvii Crisis Core - Under The Apple Tree Text Guitar Tab

Learn the song with the online tablature player
This basically involves two guitars, one lead and one that does the strumming of chords.

So anyway, just follow this, and work out the pattern/entry/intro yourself, shoudln't be
hard if u know the song lol.

x = Mute Strings
h = Hammer On

Guitar 1

        Em        G          Em
e|------x---------x----------x------------------------|
B|------x---------x----------0------------------------|
G|------0---------0----------0------------------------|
D|--0h2-2---------0----------2------------------------| (x4)
A|--0h2-2---------2----------2------------------------|
E|------0---------3----------0------------------------|

        C                     G
e|------0---------------------3-----------------------|
B|------1---------------------3-----------------------|
G|------0---------------------0-----------------------|
D|------2---------------------0-----------------------| (x3)
A|------3---------------------2-----------------------|
E|------x---------------------3-----------------------|

        C               D     DaddG
e|------0---------------2-----2h3---------------------|
B|------1---------------3-----3-----------------------|
G|------0---------------2-----2-----------------------|
D|------2---------------0-----0-----------------------| (x1)
A|------3---------------x-----2-----------------------|
E|------x---------------------------------------------|

Guitar 2 comes in after the first time through this:
        Em        G          Em
e|------x---------x----------x------------------------|
B|------x---------x----------0------------------------|
G|------0---------0----------0------------------------|
D|--0h2-2---------0----------2------------------------| (x3)
A|--0h2-2---------2----------2------------------------|
E|------0---------3----------0------------------------|

        C                     G
e|------0---------------------3-----------------------|
B|------1---------------------3-----------------------|
G|------0---------------------0-----------------------|
D|------2---------------------0-----------------------| (x3)
A|------3---------------------2-----------------------|
E|------x---------------------3-----------------------|

        C               D     DaddG
e|------0---------------2-----2h3---------------------|
B|------1---------------3-----3-----------------------|
G|------0---------------2-----2-----------------------|
D|------2---------------0-----0-----------------------| (x1)
A|------3---------------x-----2-----------------------|
E|------x---------------------------------------------|

OUTRO
x2):

        C                     G
e|------0---------------------3-----------------------|
B|------1---------------------3-----------------------|
G|------0---------------------0-----------------------|
D|------2---------------------0-----------------------|
A|------3---------------------2-----------------------|
E|------x---------------------3-----------------------|

        C                     D
e|------0---------------------2-----------------------|
B|------1---------------------3-----------------------|
G|------0---------------------2-----------------------|
D|------2---------------------0-----------------------|
A|------3---------------------x-----------------------|
E|------x---------------------------------------------|

Then PLAY (1) AGAIN

Guitar 2:

Guitar 1 does a 2 bar intro then this:

e|-----------------------------------------------------|
B|---3s5--5--3--5--------------------------------------|
G|------------------2--4s5--4--------------------------|(x2)
D|-----------------------------------------------------|
A|-----------------------------------------------------|
E|-----------------------------------------------------|

e|-----------------------------------------------------|
B|---------------3-------------------------------------|
G|-----4s5-5--5-----5--4--0----------------------------| (x3)
D|-----------------------------------------------------|
A|-----------------------------------------------------|
E|-----------------------------------------------------|

e|-----------------------------------------------------|
B|---------------------5--3~~--------------------------|
G|-----4s5-5--5--4--5----------------------------------|
D|-----------------------------------------------------|
A|-----------------------------------------------------|
E|-----------------------------------------------------|

Then repeats the exact thing again, but this time the end leads to the outro -

OUTRO

e|----3-2-3---2-3-3---------3-2-3--2-3-3s5-------------|
B|-------------------3---------------------5-----------|
G|-----------------------------------------------------|
D|-----------------------------------------------------|
A|-----------------------------------------------------|
E|-----------------------------------------------------|

e|----3-2-3---2-3-3---------3-2-3--2-3-3s7--5-3-2------|
B|-------------------3-3-------------------------------|
G|-----------------------------------------------------|
D|-----------------------------------------------------|
A|-----------------------------------------------------|
E|-----------------------------------------------------|

Guitar 1 does the ending.

You can repeat this WHOLE thing again, if you want to match the exact song in the theme,
basically just repeats the whole thing.

Email us if u need any help, or want us to tab some more.