Misc. Unsigned Bands - Fidlar - Max Cant Surf Text Guitar Tab

Learn the song with the online tablature player
                             MAX CAN'T SURF - FIDLAR

Rad song from some rad dudes.
Throw some harmonics and kills in there. idk man, get weird with it!
FIDLAR

Intro = 2A
Verse = (3A+1B) x2

       A                B
|---------------|---------------|
|---------------|---------------|
|--44-----------|--22-44--------|
|--44-55-22-22--|--22-44-22-22--|
|--22-55-22-22--|--00-22-22-22--|
|-----33-00-00--|--------00-00--|

Chorus = 2C+1D

         C                             D
|----------------------|----------------------------------|
|----------------------|----------------------------------|
|--2222 4444 99999999--|--2222 4444 999 66666-2~ -7-4-74--|
|--2222 4444 99999999--|--2222 4444 999 66666-2~ -7-4-74--|
|--0000 2222 77777777--|--0000 2222 777 44444-0~ -5-2-52--|
|----------------------|----------------------------------|

Post-chorus = 2A

Verse 2 = (3A~ +1B~) --> (3A + 1B)

      A                B
|---------------|---------------|
|---------------|---------------|
|--4~ ----------|--2~ -4~ ------|
|--4~ -5~ -2~ --|--2~ -4~ -2~ --|
|--2~ -5~ -2~ --|--0~ -2~ -2~ --|
|----- 3~ -0~ --|----------0~ --|

Chorus = 2C+1D
(Throw some palm-mutes on the first 2 notes.)

Post-chorus = 2A

Bridge = 4AX
(This is where you get weird with it)

          AX
|-----------------------|
|-----------------------|
|--44xx-----------------|
|--44xx-55xx-22xx-22xx--|
|--22xx-55xx-22xx-22xx--|
|-------33xx-00xx-00xx--|

Outro = D --> |-end-|
              |-on--|
              |-----|
              |--2--|
              |--2--|
              |--0--|

| ~  Let it ring dawg
| x  Kill it dawg
| *  Palm mute it dawg