Misc. Unsigned Bands - Final Hour - Vinnys Song Text Guitar Tab

Learn song with the online tabulature player
-----------------------------------------------------------|
---------3-----------3-----------3-----------3-------------|
-------0---0-------0---0-------0---0-------0---0-----------|
-----4-------4---4-------4---4-------4---4-------4---------|
---2-----------2-----------0-----------0-------------------|
-----------------------------------------------------------|


-----------------------------------------------------------|
---------3-----------3-------------------------------------|
-------0---0-------0---0-------0-----0---------------------|
-----4-------4---4-------4---4-----4-----------------------|
-----------------------------------------------------------|
---3-----------3-----------2-----0-------------------------|


-----------------------------------------------------------|
---------3-----------3-----------3-----------3-------------|
-------0---0-------0---0-------0---0-------0---0-----------|
-----4-------4---4-------4---4-------4---4-------4---------|
---2-----------2-----------0-----------0-------------------|
-----------------------------------------------------------|


-----------------------------------------------------------|
---------3-----------3-------------------------------------|
-------0---0-------0---0-------0-----0---------------------|
-----4-------4---4-------4---4-----4-----------------------|
-----------------------------------------------------------|
---3-----------3-----------2-----0-------------------------|


-----------------------------------------------------------|
-------3-----3---------3-----3---------3-----3-------------|
-----4-----4---------4-----4---------4-----4---------------|
-----------------------------------------------------------|
---2-----2-----2^0-----------------2-----2-----2^0---------|
-------------------2-----2-----2^0-----------------2---2^3-|


-----------------------------------------------------------|
-------3-----3---------3-----3---------3-----3-------------|
-----4-----4---------4-----4---------4-----4---------------|
-----------------------------------------------------------|
---2-----2-----2^0-----------------2-----2-----2^0---------|
-------------------2-----2-----2^0-----------------2---2^3-|