Misc. Unsigned Bands - Fire When Ready - Famous Text Guitar Tab

Learn song with the online tabulature player
--------------------55-----77-------------|
------------33------55-----77-------------|
------------33------55-----77-------------|
--55----------------33-----55-------------|
--55--------33------33-----55-------------|
--33--------------------------------------|

--------------------55-----77-------------|
------------33------55-----77-------------|
------5p3---33------55-----77-------------|
--55-----5h---------33-----55-------------|
--55--------33------33-----55-------------|
--33--------------------------------------|