Misc. Unsigned Bands - Flatline Red - Fight The Fight Text Guitar Tab

Learn the song with the online tablature player
Fight the Fight
Flatline Red
Heart Attack (2008)
CGCFAD

-----------------------|
-----------------------|
-----------------------|
-----------------------|
-----------------------|
--1--0--1---0------4^--|(x3  the last bend, bend it twice)
palmed*******    (harmonic-bend)

------------------------------------------------------------------------------|
------------------------------------------------------------------------------|
------------------------------------------------------------------------------|
------------------------------------------------------------------------------|
------------------------------------------------------------------------------|
1--0--1---0------4^-------------1--0--1---0-----3^------1--0--1---0-----2.5^--|

verse
-----------------------------------------------------------------------------------|
-----------------------------------------------------------------------------------|
-----------------------------------------------------------------------------------|
-----------------------------------------------------------------------------------|
-----------------------------------------------------------------------------------|
--1--0--1--0--4--1--0----0---1--0--4--1--0-----------------------------------------|

-----------------------------------------------------------------------------------------|
-----------------------------------------------------------------------------------------|
-----------------------------------------------------------------------------------------|
--------------------5-------------------4-----------------------3---------------------2--|
-----------------------------------------------------------------------------------------|
--1--0--1--0--4--1------0---1--0--4--1--------1--0--1--0--4--1--------0---1--0--4--1-----|
palmed***  *  *  *      *   *  *  *  *        *  *  *  *  *  *

bridge to chorus
-----------------------------------------------------------------------------------|
-----------------------------------------------------------------------------------|
-----------------------------------------------------------------------------------|
-----------------------------------------------------------------------------------|
-0--0---/12----0--0--/15---0--0--/12----0--0--13-----------------------------------|

chorus
-----------------------------------------------------------------------------------|
-----------------------------------------------------------------------------------|
-----------------------------------------------------------------------------------|
--0--0-0-0---0--0-0-3---0--0-0-0--0--0--1------------------------------------------|
--0--0-0-0---0--0-0-3---0--0-0-0--0--0--1------------------------------------------|

-----------------------------------------------------------------------------------|
-----------------------------------------------------------------------------------|
-----------------------------------------------------------------------------------|
-0--0-0-3-0-0-3---0--0--0-1--0--1--------------------------------------------------|
-0--0-0-3-0-0-3---0--0--0-1--0--1--------------------------------------------------|

-----------------------------------------------------------------------------------------|
-----------------------------------------------------------------------------------------|
-----------------------------------------4--5--------------------------------------------|
-----------------------------------------------4--5--------------------------------------|
---------------4*--5*--(x3)--------------------------4--5--------------------------------|
--1--0--1--0-----------------------1--0--------------------------------------------------|
harmonics*                                *  *  *  *  *  *

----------------------------------------------------------------------------------------|
----------------------------------------------------------------------------------------|
----------------------------------------------------------------------------------------|
----------------------------------------------------------------------------------------|
--1--0--1--0--3--4----------------------------------------------------------------------|
--1--0--1--0--3--4----------------------------------------------------------------------|
repeat a bunch of times

next bridge
-----------------------------------------------------------------------------------|
-----------------------------------------------------------------------------------|
-----------------------------------------------------------------------------------|
-----------------------------------------------------------------------------------|
--1/2--2/4-4/5--5/4---------------1-2--5--4----------------------------------------|
--1/2--2/4-4/5--5/4---------------1-2--5--4----------------------------------------|