Misc. Unsigned Bands - Flesh Is Thicker Than Blood - Shit Hole Of Earth Text Guitar Tab

Learn the song with the online tablature player
------------3---14-15-19----|
---------20--3--------------|
---------11--2-----15-------|
---------11-----------------|
------10--------------------|
12-20-------15--------------|

------------3---14-15-19----|
---------20--3--------------|
---------11--2-----15-------|
---------11-----------------|
------10--------------------|
5555555557778889745355555555|

i am the lead guitarist of flesh is thicker than blood and if you would like to contact me email me at