Misc. Unsigned Bands - Flurry - Peepshow Text Guitar Tab

Learn the song with the online tablature player
this band rocks! i havnt had a chance to sit down and write out the tab but from memory
is perfect.

Verse 1
7x)

E-2-2-2222--3-3-3333--2-2-2222--0-0-0030---|
B-3-3-3333--3-3-3333--3-3-3333--2-2-2222---|
G-2-2-2222--2-2-2222--2-2-2222--2-2-2222---|
D-------------------------------2-2-2222---|
A------------------------------------------|
D------------------------------------------|

Bridge
1x)

E--------------------------------------------------------------|
B--------------------------------------------------------------|
G---------------------7-7-7777--4-4-4444-----------------------|
D-5-5-5555--7-7-7777--7-7-7777--4-4-4444--5-5-5555--7-7-7777---|
A-5-5-5555--7-7-7777--5-5-5555--2-2-2222--5-5-5555--7-7-7777---|
D-5-5-5555--7-7-7777----------------------5-5-5555--7-7-7777---|

Chorus
4x)

E-------------------|
B-------------------|
G-777--55--5-5555---|
D-777--55--5-5555---|
A-555--33--5-5555---|
D-------------------|

Verse 2
7)

E------------------------------------------|
B------------------------------------------|
G-7-7-7777--5-5-5555--7-7-7777--7-7-7777---|
D-7-7-7777--5-5-5555--7-7-7777--7-7-7777---|
A-5-5-5555--5-5-5555--5-5-5555--7-7-7777---|
D------------------------------------------|

Bridge

E--------------------------------------------------------------|
B--------------------------------------------------------------|
G---------------------7-7-7777--4-4-4444-----------------------|
D-5-5-5555--7-7-7777--7-7-7777--4-4-4444--5-5-5555--7-7-7777---|
A-5-5-5555--7-7-7777--5-5-5555--2-2-2222--5-5-5555--7-7-7777---|
D-5-5-5555--7-7-7777----------------------5-5-5555--7-7-7777---|

Chorus

E-------------------|
B-------------------|
G-777--55--5-5555---|
D-777--55--5-5555---|
A-555--33--5-5555---|
D-------------------|

Verse
4x)

E------------------------------------------|
B------------------------------------------|
G-7-7-7777--5-5-5555--7-7-7777--7-7-7777---|
D-7-7-7777--5-5-5555--7-7-7777--7-7-7777---|
A-5-5-5555--5-5-5555--5-5-5555--7-7-7777---|
D------------------------------------------|

Bridge

E--------------------------------------------------------------|
B--------------------------------------------------------------|
G---------------------7-7-7777--4-4-4444-----------------------|
D-5-5-5555--7-7-7777--7-7-7777--4-4-4444--5-5-5555--7-7-7777---|
A-5-5-5555--7-7-7777--5-5-5555--2-2-2222--5-5-5555--7-7-7777---|
D-5-5-5555--7-7-7777----------------------5-5-5555--7-7-7777---|

Chorus
4x)

E-------------------|
B-------------------|
G-777--55--5-5555---|
D-777--55--5-5555---|
A-555--33--5-5555---|
D-------------------|

Outro

E-2-2-2222--3-3-3333--2-2-2222--0-0-0030---|
B-3-3-3333--3-3-3333--3-3-3333--2-2-2222---|
G-2-2-2222--2-2-2222--2-2-2222--2-2-2222---|
D-------------------------------2-2-2222---|
A------------------------------------------|
D------------------------------------------|

E-2-2-2222--3-3-3333--222-------2-----2---|
B-3-3-3333--3-3-3333--333--222--3--2--1---|
G-2-2-2222--2-2-2222--222--222--2--2--2---|
D--------------------------222-----2------|
A-----------------------------------------|
D-----------------------------------------|