Misc. Unsigned Bands - Fog - Get Up Stand Up Text Guitar Tab

Learn the song with the online tablature player
Song: Get Up, Stand Up
Artist: Fog

Intro Chorus
                                        x3
e ---------------------------------------------|
B ---------------------------------------------|
G ---------------------------------------------|
D --8h10—12/13----8h10-13-8h10-----------------|
A ---------------------------------------------|
E ---------------------------------------------|

e---------------------------------------------|
B---------------------------------------------|
G---------------------------------------------|
D—8h10—12/13----17-17-15-13\10----------------|
A---------------------------------------------|
E---------------------------------------------|

Verse 1
                                                            x3
e-------------------------------------------------------------|
B-------------------------------------------------------------|
G-------------------------------------------------------------|
D-17-15\13-13-15-16/17---13-13-13-12-8h10---------------------|
A-------------------------------------------------------------|
E-------------------------------------------------------------|

e-------------------------------------------------------------|
B-------------------------------------------------------------|
G-------------------------------------------------------------|
D-17-15\13-13-15-16/17---17-15\13-13-15-13\10-----------------|
A-------------------------------------------------------------|
E-------------------------------------------------------------|

e-------------------------------------------------------------|
B-------------------------------------------------------------|
G-------------------------------------------------------------|
D-10-10-12-12-13-12hm-17---17-17-15-13\10---------------------|
A-------------------------------------------------------------|
E-------------------------------------------------------------|

Chorus

e ---------------------------------------------|
B ---------------------------------------------|
G ---------------------------------------------|
D --8h10—12/13----8h10-13-8h10-----------------|
A ---------------------------------------------|
E ---------------------------------------------|

e---------------------------------------------|
B---------------------------------------------|
G---------------------------------------------|
D—8h10—12/13----17-17-15-13\10----------------|
A---------------------------------------------|
E---------------------------------------------|

e ---------------------------------------------|
B ---------------------------------------------|
G ---------------------------------------------|
D --8h10—12/13----8h10-13-8h10-----------------|
A ---------------------------------------------|
E ---------------------------------------------|

e---------------------------------------------|
B---------------------------------------------|
G---------------------------------------------|
D—8h10—12/13----17-17-15-13\10----------------|
A---------------------------------------------|
E---------------------------------------------|

Verse 2
                                                            x3
e-------------------------------------------------------------|
B-------------------------------------------------------------|
G-------------------------------------------------------------|
D-17-15\13-13-15-16/17---13-13-13-12-8h10---------------------|
A-------------------------------------------------------------|
E-------------------------------------------------------------|

e-------------------------------------------------------------|
B-------------------------------------------------------------|
G-------------------------------------------------------------|
D-17-15\13-13-15-16/17---17-15\13-13-15-13\10-----------------|
A-------------------------------------------------------------|
E-------------------------------------------------------------|

e-------------------------------------------------------------|
B-------------------------------------------------------------|
G-------------------------------------------------------------|
D-10-10-12-12-13-12hm-17---17-17-15-13\10---------------------|
A-------------------------------------------------------------|
E-------------------------------------------------------------|

Chorus

e ---------------------------------------------|
B ---------------------------------------------|
G ---------------------------------------------|
D --8h10—12/13----8h10-13-8h10-----------------|
A ---------------------------------------------|
E ---------------------------------------------|

e---------------------------------------------|
B---------------------------------------------|
G---------------------------------------------|
D—8h10—12/13----17-17-15-13\10----------------|
A---------------------------------------------|
E---------------------------------------------|

e ---------------------------------------------|
B ---------------------------------------------|
G ---------------------------------------------|
D --8h10—12/13----8h10-13-8h10-----------------|
A ---------------------------------------------|
E ---------------------------------------------|

e---------------------------------------------|
B---------------------------------------------|
G---------------------------------------------|
D—8h10—12/13----17-17-15-13\10----------------|
A---------------------------------------------|
E---------------------------------------------|

Bridge

e----------------------------------------------------------------|
B----------------------------------------------------------------|
G----------------------------------------------------------------|
D-10-10-10-10101012-10—10-10-10-10101012-13----------------------|
A----------------------------------------------------------------|
E----------------------------------------------------------------|

e----------------------------------------------------------------|
B----------------------------------------------------------------|
G----------------------------------------------------------------|
D—17-15\13-12h13-12-101010-10-10-10-10---------------------------|
A----------------------------------------------------------------|
E----------------------------------------------------------------|

e-------------------------------------------------------------------------|
B-------------------------------------------------------------------------|
G-------------------------------------------------------------------------|
D-10/13-13-13-15-13-17-13-1313-17-17-151515-13/8-8-10---------------------|
A-------------------------------------------------------------------------|
E-------------------------------------------------------------------------|

e-------------------------------------------------------------|
B-------------------------------------------------------------|
G-------------------------------------------------------------|
D-10-10-12-12-13-12hm-17---17-17-15-13\10---------------------|
A-------------------------------------------------------------|
E-------------------------------------------------------------|

Chorus

e ---------------------------------------------|
B ---------------------------------------------|
G ---------------------------------------------|
D --8h10—12/13----8h10-13-8h10-----------------|
A ---------------------------------------------|
E ---------------------------------------------|

e---------------------------------------------|
B---------------------------------------------|
G---------------------------------------------|
D—8h10—12/13----17-17-15-13\10----------------|
A---------------------------------------------|
E---------------------------------------------|

e ---------------------------------------------|
B ---------------------------------------------|
G ---------------------------------------------|
D --8h10—12/13----8h10-13-8h10-----------------|
A ---------------------------------------------|
E ---------------------------------------------|

e---------------------------------------------|
B---------------------------------------------|
G---------------------------------------------|
D—8h10—12/13----17-17-15-13\10----------------|
A---------------------------------------------|
E---------------------------------------------|

Outro

e ---------------------------------------------|
B ---------------------------------------------|
G ---------------------------------------------|
D --8h10—12/13----8h10-13-8h10-----------------|
A ---------------------------------------------|
E ---------------------------------------------|

e---------------------------------------------|
B---------------------------------------------|
G---------------------------------------------|
D—8h10—12/13----17-17-15-13-------------------|
A---------------------------------------------|
E---------------------------------------------|