Misc. Unsigned Bands - Foundation Of Fire - Daisys Because I Love You Text Guitar Tab

Learn the song with the online tablature player
Starts off acoustic.

Guitar 2=Eerik(Acoustic)
Guitar 1=Corey(Distortion)

Guitar 2 opens;
|-----------------------------------------------------------------|
|-----------------------------------------------------------------|
|-----------------------------------------------------------------|
|-----12-12-12-12-11-11-11-11-9-9-9-9-11-11-11-11-12-12-12-12-----|
|-----0--0--0--0--0--0--0--0--0-0-0-0--0--0--0--0--0--0--0--0-----|
|-----------------------------------------------------------------|

|-----------------------------------------------------------------|
|-----------------------------------------------------------------|
|------------------------------------12-12-12-12-11-11-11-11------|
|-----11-11-11-11-9-9-9-9-7-7-7-7~0--0--0--0--0--0--0--0----------|
|-----0--0--0--0--0-0-0-0-0-0-0-0---------------------------------|
|-----------------------------------------------------------------|

|-----------------------------------------------------------------|
|-----------------------------------------------------------------|
|--9-9-9-9-12-12-12-12-11-11-11-11-9-9-9-9-7-7-7-7~---------------|
|--0-0-0-0-0--0--0--0--0--0--0--0--0-0-0-0-0-0-0-0--12-12-12-12---|
|----------------------------------------------------0--0--0--0---|
|-----------------------------------------------------------------|

        VERSE Repeat on last word of each phrase do this 4 times
                 Then on 4th time, do the higher octive like in the
                        intro.
|-----------------------------------------------------------------|
|-----------------------------------------------------------------|
|-----------------------------------------------------------------|
|-12-12-12-12-11-11-11-11-9-9-9-9-11-11-11-11-12-12-12-12---------|
|-0--0--0--0---0--0--0--0-0-0-0-0-0---0--0--0--0--0--0--0---------|
|-----------------------------------------------------------------|

|-----------------------------------------------------------------|
|-----------------------------------------------------------------|
|-----------------------------------------------------------------|
|---11-11-11-11-9-9-9-9-7-7-7-7~~~--------------------------------|
|----0--0--0--0-0-0-0-0-0-0-0-7~~~--------------------------------|
|-----------------------------7~~~--------------------------------|
                                  I would do anything for you

                BRIDGE   Switches into 1st Guitar
|------------------------------------------------------------------
|------------------------------------------------------------------
|------------------------------------------------------------------
|----7~\0-----------0-0------0-0-----0-0--0-0--0-0|-3~2----3--5--6-5-3-
|----7~\0-----------0-0------0-0-----0-0--0-0--0-0|-3~2----0--0--0-
|----7~\0-----------0-0------0-0-----0-0--0-0--0-0|-3~2-000-00-00-0~
                                                  ^beggining of riff

|----------------|
|----------------|
|----------------|
|----2h3p2h3p2p0-|      REAPEAT 3X
|----------------|
|---0~~~~~~~~~~--|

THEN

|-----------------------------------------------------------|
|-----------------------------------------------------------|
|-----------------------------------------------------------|
|-----------------------------------------------------------|
|-----------------------------------------------------------|
|------0000000033333333555555556666555566668888888833335555-|     X5

THEN

|------------------------------------------------|
|------------------------------------------------|
|------------------------------------------------| REPEAT WITH HIGHER OCTIVE
|--------12~~~11~~~9~~~11~~~12~~~11~~~9~~~7~~~---| LIKE INTRO. THEN BACK TO
|-----------0-----0---0----0----0----0---0-------| VERSE.
|-----000---0-----0---0----0----0----0---0-------|