Misc. Unsigned Bands - Franz Moore - Silent Night Text Guitar Tab

Learn the song with the online tablature player
-Artist: Franz Moore [im not sure thats how you spell his name but he was a
priest and the one who made the song(no link)]
-Song: Silent Night
-Tunning: Standard

e|-0-2-0---0-2-0---|
B|-------2-------2-|
G|-----------------|
D|-----------------|
A|-0-------0-------|
E|-----------------|

e|-7-7-4-5-5-0-||-2-2-5-5-4-0-2-0---|
B|-------------||-----------------2-|
G|-------------||-------------------| x2
D|-------------||-0-----------------|
A|--------0--0-||-----------0-------|
E|-0---0-------||-------------------|

e|-7-7-10-7-4-5--10-|
B|------------------|
G|------------------|
D|------------------|
A|------------------|
E|-0----------0-----|

e|-6-0---0-3-0----2--4-5-5-0---0-3-0---|
B|-----2---------------------2---------|
G|-------------2---------------------2-|
D|----------------0--------------------|
A|-0---------------------------------2-|
E|-------0-----2---------0-----0-------|