Misc. Unsigned Bands - Friday Discussion - 2nd Melody Of A Loner Text Guitar Tab

Learn the song with the online tablature player
|---------------------|
|2nd melody of a loner|
|---------------------|

composed by roshel bona

1st tab ko....... haha...... 3p lng..
greetings ky --jhay2-jonrey-jhag-jeje-buje-edrin-apeng-gboi-karl-ramil-yhen2-aina-
teroshel-densel...
mga tropa ko.. hahaha....

intro

E--------------------|----------------------|
B--------------------|----------------------|
G---------7---9-7----|---------7------------|
D-----9-----------9--|-----9-------10-9-----|
A-7-7---7---7--------|-7-7---7---7------10--|
E--------------------|----------------------|

E--------------------|------------------------|
B--------------------|------------------------|
G--------------------|------------------------|
D----------12--------|-------------14---------|2x
A-----10------10---10|-------12-------12----12|
E-8-8----8-------8---|-10-10----10-------10---|

chorus

E-------------------------------------|
B-------------------------------------|
G-------------------------------------|x2
D-999999---555555---------------------|
A-777777---333333---555555---777777---|
E-------------------333333---555555---|

verse

E-----------------------------------------------|
B-----------------------------------------------|
G-----------------------------------------------|x4
D-99999999999999--------------------------------|
A-77777777777777---101010101010--121212121212---|
E------------------8 8 8 8 8 8---101010101010---|

chrorus:
intro
2ndverse:
chorus

interlude
E---------------|
B---------------|
G---------------|
D-999999--x4----|
A-777777--------|
E---------------|

outro
E-----------------|-----------------|
B-----------------|-----------------|
G---------7---9---|---------7---11--|
D-----9-----------|-----9-----------|
A-7-7---7---7-----|-7-7---7---7-----|
E-----------------|-----------------|

lyrics:

Chorus
I wanted to say it loud
Coz you don’t even listen
I wanted you to leave now
Coz I don’t wanna take a bow.

Verse
Something’s wrong with my world
Looks like everyone is against me
What did I do?
Did I done wrong to you?

Feels like nobody’s home
I’m all alone,
Nobody cares for me
Should I deserve this?

Chorus
I wanted to say it loud
Coz you don’t even listen
I wanted you to leave now
Coz I don’t wanna take a bow.

Verse
I wanna take a step but they don’t even understand
So you better leave me now
I don’t know what I am thinking
Do I need to prove something?

Chorus
I wanted to say it loud
Coz you don’t even listen
I wanted you to leave now
Coz I don’t wanna take a bow.