Misc. Unsigned Bands - Fuhgawz - Agarrame El Pene Que Esta Bien Parado Text Guitar Tab

Learn the song with the online tablature player
Band: Fuhgawz
Song: Agarrame el pene que esta bien parado

RIFF
1|--55-------------55--|
2|-----66-55-55-66-----|
3|---------------------|
4|---------------------|
5|---------------------|
6|---------------------|

VERSE
1|---------------------|
2|---------------------|
3|-7--5--4--5----------|
4|-7--5--4--5----------|
5|-5--3--2--3----------|
6|---------------------|
_______________________________________________________________________

INTRO
RIFF TWO TIMES

RIFF x4
Agarrame el pene que esta bien parado
agarrame el pene que esta bien parado
agarrame el pene que esta bien parado
agarrame el pene que esta bien parado

VERSE x3
Pene pene pene pene
pene pene pene pene
pene pene pene pene

END: VERSE x1

Fuhgawz is not a "real" band, is an original band, we played all over Argentina.
We don't released any record and we don't make videos, but we have fans, a lot of fans.