Misc. Unsigned Bands - Fuhgawz - La Cancion Que Empece En La Casa De Nico Text Guitar Tab

Learn song with the online tabulature player
-----------------------------------------------------------------------------            
LA CANCION QUE EMPECE EN LA CASA DE NICO - Fuhgawz
-----------------------------------------------------------------------------


Tuning: Normal

Riff 1
e|---------------------------------------|
B|--------1--------0--------1------1-----|
G|------2--------0--------0----------0---|
D|----2--------0--------2--------2-------|
A|--0-----------------3------------------|
E|-----------3-----------------3---------|

Riff 2
e|---------------------------------------|
B|--------1------1----------0------------|
G|------2----------2------0--------------|
D|----2--------0--------0--------0---0---|
A|--0--------------------------3---2-----|
E|-----------2--------3------------------|

Riff 3
e|---------------------------------------|
B|--------1------1----------0------------|
G|------2----------2------0--------------|
D|----2--------2--------0--------0---0---|
A|--0--------------------------3---2-----|
E|-----------1--------3------------------|

Riff 4
e|--------------------------------------------------|
B|--------1--------1--------0--------0--1-----------|
G|------2--------0--------0--------0----2let ring---|
D|----2--------0--------0--------0------2-----------|
A|--0--------2--------3-----------------0-----------|
E|-----------------------------3--------------------|




===============================================================================
Comments or additions, you know what to do!!!