Misc. Unsigned Bands - Fuhgawz - Vamos A Topsy Text Guitar Tab

Learn the song with the online tablature player
Artist: Fuhgawz
Song: Vamos a Topsy

Riff
1|------|------|-----|------|
2|------|------|-----|------|
3|-9----|------|-----|------|
4|-9-x6-|------|-----|-6-x6-|
5|-7----|-3-x6-|-9x6-|-7----|
6|------|-5----|-7---|------|

End
1|------|------|----------|----|
2|------|------|----------|----|
3|-9----|------|----------|----|
4|-9-x6-|------|----------|-x6-|
5|-7----|-3-x6-|-x9-x9-x9-|-x7-|
6|------|-5----|-x7-x7-x7-|----|

INTRO
RIFF ONE TIME

RIFF x4
Vamos a topsy, vamos ya
es el mejor lugar
vamos a topsy, vamos ya
es el mejor lugar

RIFF x4
Topsy esta en mi corazon
topsy esta en tu corazon
topsy esta en mi corazon
topsy esta en tu corazon

RIFF x4
Vamos a topsy, vamos ya
es el mejor lugar
vamos a topsy, vamos ya
es el mejor lugar

RIFF x4
Topsy esta en mi corazon
topsy esta en tu corazon
topsy esta en mi corazon
topsy esta en tu corazon

END