Misc. Unsigned Bands - Full Fathom - Xevoz Text Guitar Tab

Learn the song with the online tablature player
~Intro~

e: ---------------------------------------------------------- ---
B: ----------------------------------------------------------   :
G: ---5-7-5---5-7-5---5-7-5----------------------------------   :
D: -7-------6-------5-------4-5-6----------------------------   : - x2
A: ----------------------------------------------------------   :
E: ---------------------------------------------------------- ---

~Verse~

Same as intro.

~Chorus~

e: ---------------------------------------------------------- ---
B: ----------------------------------------------------------   : - Repeat
G: ----------------------------------------------------------   : - Until
D: ----------------------------------------------------------   : - 2nd
A: -7-7-7-7-6-6-6-6-5-5-5-5-4-5-6----------------------------   : - Verse
E: -5-5-5-5-4-4-4-4-3-3-3-3-2-3-4---------------------------- ---

Just repeat that until the song is over.

Very easy to play, but a cool song.

Please rate/ comment.

~ UGchicken