Misc. Unsigned Bands - Funtwo - Carol Rock Text Guitar Tab

Learn the song with the online tablature player
        |*5|                              |*5|
|-------------14-16-17-17br-----------------------------------------------|
|-14-15-17---------------------------14-15-17------15-17b-15h17p15--14/7--|
|-------------------------------------------------------------------------|
|-------------------------------------------------------------------------|
|-------------------------------------------------------------------------|
|-------------------------------------------------------------------------|

|-------------------------------------------------------------------------|
|-14-17----14----15-------------------------------------------------------|
|-------14----16----------------------------------------------------------|
|----------------------18-19(((-------------------------------------------|
|-------------------------------------------------------------------------|
|-------------------------------------------------------------------------|

thats not all but its something, write to me if you know moore tabs in the song and if
wrong somewhere.

( = vibration
/ = slide down
b = bend
r = reduce