Misc. Unsigned Bands - Futures - The Boy Who Cried Wolf Acoustic Text Guitar Tab

Learn the song with the online tablature player
Futures - The Boy Who Cried Wolf (Acoustic)

     Intro/Verse/Chorus

     |-------------------------------------|
     |-------------------------------------|
     |-----------6--6-6---9--9-9---8--8-8--|
     |--7--7-7---6--6-6---9--9-9---9--9-9--|
     |--7--7-7---4--4-4---7--7-7---6--6-6--|
     |--7--7-7-----------------------------|

      Bridge
     (You ignore what they say..)

     |-----------|
     |-----------|
     |--9--6--4--|
     |--7--4--2--|
     |--7--4--2--|   X2
     |--7--4--2--|

     Then back to Chorus.

     Enjoy!