Misc. Unsigned Bands - Gersey - Crashing Text Guitar Tab

Learn the song with the online tablature player
Artist: Gersey
Song: Crashing
Album: Look Both Ways Soundtrack

|-----------------|-----------------|-----------------|
|-------5---------|---5-----------5-|-----------5-----|
|-----6---6-------|-6---6-------6---|-6-------6---6---|
|---7-------7---7-|-------7---7-----|---7---7-------7-|
|-0-----------0---|-----------------|-----------------|
|-----------------|---------4-------|-----4-----------|

|-----------------|-----------------|-----------------|
|-------5---------|---5-----------5-|-----------5-----|
|-----6---6-------|-6---6-------6---|-6-------6---6---|
|---7-------7---7-|-------7---7-----|---7---7-------7-|
|-----------------|-----------------|-----------------|
|-0-----------0---|---------4-------|-----4-----------|