Misc. Unsigned Bands - Ghost - Stop Blue Mix Text Guitar Tab

Learn song with the online tabulature player
A great song to pluck away to, very easy. Have fun.

e|----------11------10--------|
B|----------------------------|
G|--------12--12--12----------|
D|------10------10------------|
A|----------------------------|
E|----------------------------|

e|----------------------------|
B|----------15-----15---------|
G|--------15-----17--17-------|
D|------13-----15-------------|
A|----------------------------|
E|----------------------------|

e|--------------20------------|
B|----------16------16--------|
G|----------------------------|
D|--------17--17--17--17------|
A|------15--------------------|
E|----------------------------|

e|----------------------------|
B|----------15------15--------|
G|--------15------17--17------|
D|------13------15------------|
A|----------------------------|
E|----------------------------|

Repeat until end.