Misc. Unsigned Bands - Ghost Town - More Wind Text Guitar Tab

Learn the song with the online tablature player
More Wind - Ghost Town

e|2---4---6------------------------------------------------------------------|
B|------------2---4---6------------------------------------------------------|
G|------------------------3---5---7------------------------------------------|
D|------------------------------------4---6---8------------------------------|
A|------------------------------------------------4---6---8------------------|
E|------------------------------------------------------------2---4---6------|

e|4---6---8------------------------------------------------------------------|
B|------------4---6---8------------------------------------------------------|
G|------------------------5---7---9------------------------------------------|
D|------------------------------------6---8---10-----------------------------|
A|------------------------------------------------6---8---10-----------------|
E|------------------------------------------------------------4---6---8------|

e|6---8---10-----------------------------------------------------------------|
B|------------6---8---10-----------------------------------------------------|
G|------------------------7---9---11-----------------------------------------|
D|------------------------------------8---10--12-----------------------------|
A|------------------------------------------------8---10--12-----------------|
E|------------------------------------------------------------6---8---10-----|