Misc. Unsigned Bands - Ghost - Why So Serious Text Guitar Tab

Learn song with the online tabulature player
Intro/Outro
E---------0---------------0-------|
B---3-2-3---3-2-3---3-2-3---3-2-3-|
G---------------------------------|
D---------------------------------|
A-2-------------------------------|
E-----------------3---------------|

E---------0---------------2-0-----|
B---3-2-3---3-2-3---3-2-3-----3-2-|
G---------------------------------|
D-0-------------------------------|
A-----------------0---------------|
E---------------------------------|

Chords:
Verses
EADGBE
-2443-
3554--
--0232
-02220

He doesn't like that...
EADGBE
0220--
-2443-
2443--
3554--

Let's put a smile on that face...
EADGBE
320033
--0232
-02220