Misc. Unsigned Bands - Girl Friday - Gone Text Guitar Tab

Learn the song with the online tablature player
for more Girl Friday songs, go to myspace.com/girlfridaymusic
h=hammer on

intro/verse riff
e-------0----------------------------|
b---------0--------------------------|
g-----------------9------9-     play-| 12 times
d------------------9------9----------|
a--0h7-------------------------------|
e------------0h7----7h9--------------|

bridge
e--0---0------0---0------0---0-----0---0-----0--0-----0--0-|
b--0---0------0---0------0---0-----0---0-----0--0-----0--0-|
g--11--11-----11--11-----9---9-----9---9-----8--8-----8--8-|
d--12--12-----12--12-----10--10----10--10----9--9-----9--9-|
a--12--12-----12--12-----10--10----10--10----9--9-----9--9-|
e--10--10-----10--10-----8---8-----8---8-----7--7-----7--7-|

then play the verse riff 12 times

then the chorus

chorus "when I'm gone..."
e------------------------------|
b--8--8----------6--6--------6-|
g--9--9---8--8---7--7---6--6-7-|
d--9--9---9--9---7--7---7--7-7-|    play 3 times
a--7--7---6--6---5--5---4--4-5-|
e------------------------------|

then play verse riff 12 times

then play bridge

then play chorus

then theres a part im not sure of, i think its C# and C, but ill post a new tab
after i figure it out.

after that, play the chorus twice.