Misc. Unsigned Bands - Glen Farris - When The Dawn Finds You Text Guitar Tab

Learn the song with the online tablature player
This is a very basic version of the pattern, I think he does a rolling pattern between
the B and high E but i cant get my head around it yet so play around with it

A few different parts but if you listen to the track you will know what goes where. I've
added some of the lyrics to the parts to give you a feel

Intro
with Harmonica):

    Am           Am            Am          G
E|------------------------------------------------------|
B|--------1---1--------1---1--------1---1--------1---1--|
G|----2------------2------------2------------0----------|
D|------2---2--------2---2--------2---2--------0---0----|
A|--0------------0------------0-------------------------|
E|-----------------------------------------3------------|

    C            C            C            B/C
E|------------------------------------------------------|
B|--------1---1--------1---1--------1---1--------1---1--|
G|----0------------0------------0------------0----------|
D|------2---2--------2---2--------2---2--------0---0----|
A|--3------------3------------3------------2------------|
E|------------------------------------------------------|

Pre Verse: x2

    C            C            C            G
E|------------------------------------------------------|
B|--------1---1--------1---1--------1---1--------1---1--|
G|----0------------0------------0------------0----------|
D|------2---2--------2---2--------2---2--------0---0----|
A|--3------------3------------3-------------------------|
E|-----------------------------------------3------------|

Verse
    You Cant Bring...
    Am           Am            Am          G
E|------------------------------------------------------|
B|--------1---1--------1---1--------1---1--------1---1--|
G|----2------------2------------2------------0----------|
D|------2---2--------2---2--------2---2--------0---0----|
A|--0------------0------------0-------------------------|
E|-----------------------------------------3------------|

    Leave your bed...
    C            C            C            G
E|------------------------------------------------------|
B|--------1---1--------1---1--------1---1--------1---1--|
G|----0------------0------------0------------0----------|
D|------2---2--------2---2--------2---2--------0---0----|
A|--3------------3------------3-------------------------|
E|-----------------------------------------3------------|

Chorus
x2

    Want      you      to     Know
    F            F            G            G
E|------------------------------------------------------|
B|--------1---1--------1---1--------0---0--------0---0--|
G|----2------------2------------0------------0----------|
D|------3---3--------3---3--------0---0--------0---0----|
A|---------------3--------------------------------------|
E|--1-------------------------3------------3------------|

    Something out there       waiting for  you
    C            B/C          Am           Am/G
E|------------------------------------------------------|
B|--------1---1--------1---1--------1---1--------1---1--|
G|----0------------0------------2------------2----------|
D|------2---2--------0---0--------2---2--------2---2----|
A|--3------------2------------0-------------------------|
E|-----------------------------------------3------------|

Back to verse:

  I Know                      Love
    F            F            G            G
E|------------------------------------------------------|
B|--------1---1--------1---1--------0---0--------0---0--|
G|----2------------2------------0------------0----------|
D|------3---3--------3---3--------0---0--------0---0----|
A|---------------3--------------------------------------|
E|--1-------------------------3------------3------------|

will Find You
    C            C            C            G
E|------------------------------------------------------|
B|--------1---1--------1---1--------1---1--------1---1--|
G|----0------------0------------0------------0----------|
D|------2---2--------2---2--------2---2--------0---0----|
A|--3------------3------------3-------------------------|
E|-----------------------------------------3------------|

I think thats all the parts. Really nice to play and sing. Enjoy