Misc. Unsigned Bands - God Bless - Kehidupan Text Guitar Tab

Learn song with the online tabulature player
Artis           : God Bless
Lagu            : Kehidupan
Tabber  : Wahyu NJ(WAHYU_ROCK_ON)
Tuning  : Standar

Ini sengaja diekstrak biar yang tdk punya gitar pro tdk kerepotan cari tabnya, 
secara overall lumayan. Masih ada salah2 di solo gitar n keyboardnya. Mudah2an 
post ini membantu, klo ad kritik atau saran silakan merasa bebes untuk comment.

Urutan:
Intro
Verse 10x
Bridge
Verse 1,5x (3 bar)
Ada selingan bntr (1 bar)
Verse 8x
Bridge 2x
Reff 2x
Solo gitar
Solo keyboard
Verse 4x
Bridge 2x
Reff 4x
Break


INTRO
     H.           Q       H.           Q     
E||--------------------|--------------------|
B||--------------------|--------------------|
G||--5------------2----|--7------------9----|
D||--5------------2----|--7------------9----|
A||--3------------0----|--5------------7----|
E||--------------------|--------------------|


  E  Q.     Q.     E     Q    H.            
--L-------------------|--------------------|
--L-------------------|--------------------|
--L--4------5------2--|--L----4------------|
--L--4------5------2--|--L----4------------|
--L--2------3------0--|--L----2------------|
----------------------|--------------------|


  Q                             
-------|-------|---------------|
-------|-------|---------------|
--L----|-------|---------------|
--L----|-------|---------------|
--L----|-------|---------------|
-------|-------|---------------|


VERSE
    PM PM PM PM PM PM PM     
    E  E  E  E  E  E  E  E   
|---------------------------|
|---------------------------|
|*--------------------------|
|*--------------------------|
|------------------------5--|
|---0--0--3--0--0--0--3-----|


  PM PM PM PM PM PM          
  E  E  E  E  E  E  Q        
---------------------------||
---------------------------||
--------------------------*||
--------------------------*||
--------------2--3--2~-----||
--0--0--3--0---------------||


Bridge
Tak dapatkah sejenak...
  E  E  E  E  E  E  E  E   
--------------------------|
--------------------------|
--5--5--5--5--7--7--7--9--|
--5--5--5--5--7--7--7--9--|
--3--3--3--3--5--5--5--7--|
--------------------------|

Hentikan ambisimu..
  E  E  E  E  E  E  E  E   
--------------------------|
--------------------------|
--5--5--5--5--7--7--7--9--|
--5--5--5--5--7--7--7--9--|
--3--3--3--3--5--5--5--7--|
--------------------------|


Lihatlah peluhku
  E  E   E  E  E   E  E  E   
----------------------------|
----------------------------|
----------------------------|
----------------------2-----|
--7--7s--5--7--7s--5--0-----|
--5--5s--3--5--5s--3--------|


  E  E  E  E  E  E  E  E   
--------------------------|
--------------------------|
--------------------------|
-----------5-----2--2-----|
--7--7--5--3-----0--0--5--|
--5--5--3--------------3--|


Tengoklah hatiku
  E  E   E  E  E   E  E  E   
----------------------------|
----------------------------|
----------------------------|
----------------------------|
--9--9s--7--9--9s--7--9-----|
--7--7s--5--7--7s--5--7-----|


  E  E  E  E  E  E  E  E   
--------------------------|
--------------------------|
--------------------------|
--4--4--2--7-----4--4--2--|
--2--2--0--5-----2--2--0--|
--------------------------|

REFF
    PM PM PM PM PM PM PM PM  
    E  E  E  E  E  E  E  E   
|---------------------------|
|---------------------------|
|*--------------------------|
|*--5--5--5--5--5--5--5--5--|
|---3--3--3--3--3--3--3--3--|
|---------------------------|


  PM PM PM PM PM PM PM PM  
  E  E  E  E  E  E  E  E   
--------------------------|
--------------------------|
--------------------------|
--7--7--7--7--7--7--7--7--|
--5--5--5--5--5--5--5--5--|
--------------------------|


  PM PM PM PM PM PM PM PM  
  E  E  E  E  E  E  E  E   
--------------------------|
--------------------------|
--------------------------|
--4--4--4--4--4--4--4--4--|
--2--2--2--2--2--2--2--2--|
--------------------------|


  PM PM PM PM PM PM PM PM    
  E  E  E  E  E  E  E  E     
---------------------------||
---------------------------||
--------------------------*||
--2--2--2--2--2--2--2--2--*||
--0--0--0--0--0--0--0--0---||
---------------------------||


...mereka semua
  E.  E.  E.  E.  E.  S  
------------------------|
------------------------|
--5---5---5---5---5---5-|
--5---5---5---5---5---5-|
--3---3---3---3---3---3-|
------------------------|


Kau pikirkan..
  E  E.  H        E.                        
----------------------|
----------------------|
--L--7----------------|
--L--7----------------|
--L--5----------------|

Solo Gitar


  PM PM PM PM PM   PM   PM   PM    
  E  E  E  E  E    E    E    E     
----------------------------------|
----------------------------------|
----------------------------------|
----------------------------------|
--5--5--5--5--5pb--5pb--5pb--5pb--|
----------------------------------|


  PM   PM   PM   PM   PM   PM   PM   PM    
  E    E    E    E    E    E    E    E     
------------------------------------------|
------------------------------------------|
------------------------------------------|
------------------------------------------|
--5pb--5pb--5pb--5pb--5pb--5pb--5pb--5pb--|
------------------------------------------|


  PM PM PM    PM PM PM                
  S  S  S  E  S  S  S  E  E  S S S S  
-------------------------------------|
-------------------------------------|
-------------------------------------|
-----------5-----------7--5--5-------|
--7--5--7-----7--5--7----------7-5-7-|
-------------------------------------|


  S S S S S S S E  Q.     S  
----------------------------|
----------------------------|
----------------------------|
----------------------------|
--5-2-5-2---2---------------|
----------3---3-0-----------|


  PM             PM                  
  E.     S  E  S E.     S  E  S S S  
------------------------------------|
------------------------------------|
------------------------------------|
------------------------------------|
--5(5)---5s-2----5(5)---5s-2----5---|
------------------------------------|


  S E   S S S S S E.   S S S S S  
---------------------------------|
---------------------------------|
---------------------------------|
-----------------------------5---|
--5-5s--2---5---5-5b---7-5-7---7-|
---------------------------------|


  S S S S S E  S S S S S S  E.   
--------------------------------|
--------------------------------|
--------------------------------|
------------5--------5---7s-9---|
--5---7-5-7----7-5-7---7--------|
--------------------------------|


  S S S  E  S S S S S S S S S S S  
----------------------------------|
----------------------------------|
----------------------------------|
----5-4s-5--4-2-2-----------------|
--7---------------5-3-5-3-0-3-5-3-|
----------------------------------|


  S S S S S S S S H                          
----------------------------|-------|-------|
----------------------------|-------|-------|
----------4-7-5-4-5~--------|-------|-------|
------5-7-------------------|-------|-------|
--5-7-----------------------|-------|-------|
----------------------------|-------|-------|



SOLO KEYBOARD
  W                   W                 
-------------------|-------------------|
-------------------|-------------------|
--5----------------|--4----------------|
--5----------------|--4----------------|
--3----------------|--2----------------|
-------------------|-------------------|


  W                   Q    Q     H         
-------------------|----------------------|
-------------------|----------------------|
--2----------------|--8----9----11--------|
--2----------------|--8----9----11--------|
--0----------------|--6----7-----9--------|
-------------------|----------------------|


  W                   W                 
-------------------|-------------------|
-------------------|-------------------|
--5----------------|--7----------------|
--5----------------|--7----------------|
--3----------------|--5----------------|
-------------------|-------------------|


  W                   Q    Q    Q    Q     
-------------------|----------------------|
-------------------|----------------------|
--4----------------|--4----2----7----4----|
--4----------------|--4----2----7----4----|
--2----------------|--2----0----5----2----|
-------------------|----------------------|


  W                   W                 
-------------------|-------------------|
-------------------|-------------------|
--5----------------|--2----------------|
--5----------------|--2----------------|
--3----------------|--0----------------|
-------------------|-------------------|


  W                   H         
-------------------|-----------|
-------------------|-----------|
-------------------|-----------|
--2----------------|--L--------|
--2----------------|--L--------|
--0----------------|--L--------|


-------------------|-------------------|
-------------------|-------------------|
-------------------|-------------------|
-------------------|-------------------|
-------------------|-------------------|
-------------------|-------------------|


  Q    E  Q    E  E  E   
------------------------|
------------------------|
-------5-------7-----9--|
-------5-------7-----9--|
-------3-------5-----7--|
------------------------|

Break
  H.           Q       W                 
--------------------|-------------------|
--------------------|-------------------|
--9------------9----|--8----------------|
--------------------|-------------------|
--7------------7----|--6----------------|
--------------------|-------------------|


  H.           Q       W                 
--------------------|-------------------|
--------------------|-------------------|
--6------------6----|--4----------------|
--------------------|-------------------|
--4------------4----|--2----------------|
--------------------|-------------------|


  H.           Q       W                 
--------------------|-------------------|
--------------------|-------------------|
--------------------|-------------------|
--7------------7----|--6----------------|
--------------------|-------------------|
--5------------5----|--4----------------|


  H.           Q       W                 
--------------------|-------------------|
--------------------|-------------------|
--9------------9----|--8----------------|
--------------------|-------------------|
--7------------7----|--6----------------|
--------------------|-------------------|


  H.           Q       W                 
--------------------|-------------------|
--------------------|-------------------|
--6------------6----|--4----------------|
--------------------|-------------------|
--4------------4----|--2----------------|
--------------------|-------------------|


  E.  E.  E.  E.  E.  S  
------------------------|
------------------------|
--5---5---5---5---5---5-|
--5---5---5---5---5---5-|
--3---3---3---3---3---3-|
------------------------|


  E  E.  H        E.     H        H         
----------------------|--------------------|
----------------------|--------------------|
--L--7----------------|--9-----------------|
--L--7----------------|--9--------9--------|
--L--5----------------|--7--------9--------|
----------------------|-----------7--------|


   H        H           H        H         
---------------------|--------------------|
---------------------|--------------------|
---------------------|-----------9--------|
--10--------7--------|--L--------9--------|
--10--------7--------|--L--------7--------|
---8--------5--------|--L-----------------|



Duration Legend
---------------
W - whole
H - half
Q - quarter
E - 8th
S - 16th
T - 32nd
X - 64th
. - note dotted
|-n-|  - n-tuplets


Tablature Legend
----------------
L - tied note
> - accentuded note
NH - natural harmonic
AH - artificial harmonic
TH - tapped harmonic
SH - semi harmonic
PH - pitch harmonic
h - hammer on
p - pull off
b - bend
br - bendRelease
pb - preBend
\n/ - tremolo bar dip
\n - tremolo bar dive
-/n - tremolo bar Release up
/n\ - tremolo bar inverted dip
/n - tremolo bar return
-\n - tremolo bar Release down
S - shift slide
s - legato slide
/ -  slide into from below or out of upwards
\ -  slide into from above or out of downwards
~ - vibrato
W - wide vibrato
tr - trill
TP - tremolo picking
< - fade in