Misc. Unsigned Bands - Gone For Business - Forgive Me Text Guitar Tab

Learn the song with the online tablature player
New Band from the Syracuse area.
Chick band. Pretty cool.

Heavy Distortion
Intro
e|----------------------------------------------|
B|----------------------------------------------|
G|----------------------------------------------|
D|-99-------99------99------------7-8-10--------|
A|-99-------99------99------7-9-10--------------|
D|-99-------99------99--------------------------|     x2
   xx      xx      xx

e|----------------------------------------------|
B|----------------------------------------------|
G|----------------------------------------7-9-10|
D|-99-------99-------99-------------7-9-10------|
A|-99-------99-------99-------7-9-10------------|
D|-99999999-99999999-99999999-------------------|

Verse
|-----------------------------------------------|
|-----------------------------------------------|
|-----------------------------------------------|
|-99-----99-----99--------7-9-10----------------|
|-99-----99-----99--7-9-10----------------------|
|-99-----99-----99------------------------------|     x2
  xx     xx     xx

Chorus
|-----------------------------------------------|
|-----------------------------------------------|
|----7-7-7----5-5-5----5-5-5----3-3-3-----------|
|-99-7-7-7-77-5-5-5-77-5-5-5-99-3-3-3-99--------|
|-99-9-9-9-77-7-7-7-77-7-7-7-99-5-5-5-99--------|
|-99-------77-------77-------99-------99--------|
                                      xx

Post Chorus Is All Bass & Drum

Verse
e|-----------------------------------------------|
B|-----------------------------------------------|
G|-----------------------------------------------|
D|-99-----99-----99--------7-9-10----------------|
A|-99-----99-----99--7-9-10----------------------|
D|-99-----99-----99------------------------------|     x2
  xx     xx     xx

Chorus
e|-----------------------------------------------|
B|-----------------------------------------------|
G|----7-7-7----5-5-5----5-5-5----3-3-3-----------|
D|-99-7-7-7-77-5-5-5-77-5-5-5-99-3-3-3-99--------|
A|-99-9-9-9-77-7-7-7-77-7-7-7-99-5-5-5-99--------|
D|-99-------77-------77-------99-------99--------|
                                      xx
Bridge
e|-----------------------------------------------|
B|--------------------------------------^12-^10--|
G|-------------7-9-10-9-------9--7-9-10----------|
D|-------7-9-10---------9---9--------------------|
A|-7-9-10-----------------7----------------------|
D|-----------------------------------------------|

e|-----------------------------------------------|
B|-----------------------------------------------|
G|-------------7-9-10-10-------10--^14-^12-------|
D|-------7-9-10---------10---10------------------|
A|-7-9-10------------------8--------------7-9-10-|
D|-----------------------------------------------|

Intro
e|----------------------------------------------|
B|----------------------------------------------|
G|----------------------------------------------|
D|-99-------99------99------------7-8-10--------|
A|-99-------99------99------7-9-10--------------|
D|-99-------99------99--------------------------|     x2
   xx      xx      xx

Chorus
e|-----------------------------------------------|
B|-----------------------------------------------|
G|----7-7-7----5-5-5----5-5-5----3-3-3-----------|
D|-99-7-7-7-77-5-5-5-77-5-5-5-99-3-3-3-99--------|
A|-99-9-9-9-77-7-7-7-77-7-7-7-99-5-5-5-99--------|
D|-99-------77-------77-------99-------99--------|
                                      xx
Outro
e|-----------------------------------------------|
B|-----------------------------------------------|
G|---------------7-9-10--------------------------|
D|--------7-9-10--------99-----------------------|
A|--7-9-10--------------99-----------------------|
D|----------------------99-----------------------|
                        xx

Very close.
Have fun playing.