Misc. Unsigned Bands - Gone Til November - If You Dont Miss Me Acoustic Text Guitar Tab

Learn the song with the online tablature player
Intro & Verse 1:
E-----------------------------------------------------------------------|
B-----------------------------------------------------------------------|
G-----------------------------------------------------------------------|
D-----------------------------------6-----------4-4-4-------------------| x9
A-----------6---7-------7-7-7---4-------7-------------------------------|
E-------4-----------5-----------------------5---------------------------|

(3rd time: 'Now we're losing it all...')

CHORUS
E----------------------------------------------------------------------|
B----------------------------------------------------------------------|
G---x-x-x-x------9------6------4---------------------------------------|
D---x-x-x-x------9------6------4---------------------------------------| x2
A---x-x-x-x------7------4------2---------------------------------------|
E---x-x-x-x------x------x------x---------------------------------------|
               "And you threw it all away..."
               (2nd time dont do the muted chords)
               (Figure strumming pattern out)

Verse 2
E-----------------------------------------------------------------------|
B-----------------------------------------------------------------------|
G-----------------------------------------------------------------------|
D-----------------------------------6-----------4-4-4-------------------| x7
A-----------6---7-------7-7-7---4-------7-------------------------------|
E-------4-----------5-----------------------5---------------------------|
        "Oh Oh Oh (first 2 times) then Last time we spoke alone..."

CHORUS
E----------------------------------------------------------------------|
B----------------------------------------------------------------------|
G---x-x-x-x------9------6------4---------------------------------------|
D---x-x-x-x------9------6------4---------------------------------------| x2
A---x-x-x-x------7------4------2---------------------------------------|
E---x-x-x-x------x------x------x---------------------------------------|
               "And you threw it all away..."
               (2nd time dont do the muted chords)
               (Figure strumming pattern out)

Bridge
E-----------------------------------------------------------------------|
B-----------------------------------------------------------------------|
G---9-------2-------9---------------------------------------------------|
D---11------2-------9---------------------------------------------------|x2
A---11------0-------7---------------------------------------------------|
E---x-------x-------x---------------------------------------------------|
                       "I want it back..."

End of bridge:
E-----------------------------------------------------------------------|
B-----------------------------------------------------------------------|
G-----------------------------------------------------------------------|
D----6---------9-------6----------9-------6----------6------------4-----| x2
A-7--------7-------7----------6-------6----------4-------4-----2------2-|
E-----------------------------------------------------------------------|
                               "Oh, Oh, Oh..."

CHORUS
E----------------------------------------------------------------------|
B----------------------------------------------------------------------|
G---x-x-x-x------9------6------4---------------------------------------|
D---x-x-x-x------9------6------4---------------------------------------| x2
A---x-x-x-x------7------4------2---------------------------------------|
E---x-x-x-x------x------x------x---------------------------------------|
               "And you threw it all away..."
               (2nd time dont do the muted chords)
               (Figure strumming pattern out)

Ending
E-----------------------------------------------------------------------|
B-----------------------------------------------------------------------|
G--------------------------------------------------------9--------------|
D--------------------------------6-----------4-4-4-------9--------------| x4
A--------6---7-------7-7-7---4-------7-------------------7--------------|
E----4-----------5-----------------------5---------------x--------------|
                           "Oh Oh Oh"