Misc. Unsigned Bands - Good Night And Good Luck - The Road To Nowhere Text Guitar Tab

Learn the song with the online tablature player
e-0~~~0------------------------------------------------|
B-1~~~1------------------------------------------------|
G-2~~~2------------------------------------------------|
D-2~~~2-------------------------------------4~~4-7-5~~-|
A-0~~~0------5-1-3~~3-6-5~~5-3-1~~1-5-3~~3-1-----------|
E-0~~~0-3-1~~------------------------------------------|

e---55~~333313~~335---------55~~333313~~335---------------|
B---------------------------------------------------------|
G-5----------------555555~~5---------------545795~~~~~579-|
D---------------------------------------------------------|
A---------------------------------------------------------|
E---------------------------------------------------------|